Oops, an error
Loading. Please wait.

Cultured Man Bass Tab

466 views 1 this week
no commentswrite comment
1 2 3 4 5
1 last vote to show rating
add to favorites
launch autoscroll
font size
0
reset
guitar tuner
Autoscroll
slow
fast
+/-
esc
set tempo
stop
Help us to improve Ultimate-Guitar.com Take our survey!
×
Author
-------------------------------------------------------------------------------
                             Cultured Man - The Zolas
-------------------------------------------------------------------------------
Tabbed by: Ryan Campbell
E-mail: ryan_campbell333@hotmail.com

Figured this out by ear it's my first tab so probably not 100% but i think it 
sounds right. Listen to the song for the timing
http://www.youtube.com/watch?v=elouvvondwY
These guys are a great band from Vancouver B.C.


Tuning:E A D G
          Intro
G|---------------------------------------------------------------------------|
D|---------------------------------------------------------------------------|
A|-------2-------------2-------------2-------------2-------------------------|
E|---4-4----0-0----4-4----0-0----4-4----0-0----4-4----0-0--------------------|
          Verse x2
G|---------------------------------------------------------------------------|
D|---------------------------------------------------------------------------|
A|----2-------/7------------------------------4------------------------------|
E|----------------------4-----------------------------------------2----------|
          Pre Chorus
G|-------------------|-------|-----------------------------------------------|
D|-------------------|play x2|-----------------------------------------------|
A|--------2----------|-------|-----------------------------------------------| 
E|----4-4----0-0-----|-------|---2-2-2-2-02-2-2-2-02-2-2-2-02-2-2-02-23------|  x2
          Chorus x2
G|---------------------------------------------------------------------------|
D|---------------------------------------------------------------------------|
A|--------------2-2------------------2-2---------------2-2---------------2-2-|
E|-4-4-4-42-0-0------42-2-44--33-0-0-----34-4-4-42-0-0-----42-2-44-33-0-0----|
          Bridge
G|---------------------------------------------------------------------------|
D|---------------------------------------------------------------------------|
A|-------4------4------4-----------------------------------------------------|
E|-6--2----6--2---6--2-------6-6-6-6-5-5-5-5---------------------------------|

         Chours/Outro
G|---------------------------------------------------------------------------|
D|---------------------------------------------------------------------------|
A|--------------2-2------------------2-2---------------2-2---------------2-2-|
E|-4-4-4-42-0-0------42-2-44--33-0-0-----34-4-4-42-0-0-----42-2-44-33-0-0----|
 order is
intro
verse x2
pre chorus
chorus
verse
pre chorus
outro x12
 



| /  slide up
| \  slide down
| h  hammer-on
| p  pull-off
| ~  vibrato
| +  harmonic
| x  Mute note
===============================================================================
Suggest correction
Give kudos to tab author, rate the tab!
1 2 3 4 5
comments
print report bad tab
guest
You may want to rate the tab now too:
select rating
Wanna post a correction for this tab? Suggest correction