Oops, an error
Loading. Please wait.

A Love That Never Was Tab

version 1
version 1

Whole song

  • Added verse and intro tab and Ddim chord.
16 views 1 this week
no commentswrite comment
1 2 3 4 5
3 more votes to show rating
add to favorites
launch autoscroll
font size
0
reset
how to read this tab
guitar tuner
Autoscroll
slow
fast
+/-
esc
set tempo
stop
Help us to improve Ultimate-Guitar.com Take our survey!
×
Author
Difficulty
intermediate
About this tab version
Added verse and intro tab and Ddim chord. Was this info helpful? Yes No
[Intro]

(play during intro and between verses)
e|------5-------------5----------------5------------5--------------------|
B|-5--------5-------------5----------------5------------5----------------|
G|---------------7-------------7--6------------7------------7------------|
D|-----------------------------------------------------------------------|
A|-----------------------------------------------------------------------|
E|-----------------------------------------------------------------------|(x2) 


[Verse]

(play throughout verse):
 
   A                C#m             F#m
e|----------------5--4------------------------------2-------------------|
B|-----------5-----------5---------------------2--------2---------------|
G|------6--------------------6------------2-----------------2-----------|
D|-7------------------------------6--4---------------------------4------|
A|----------------------------------------------------------------------|
E|----------------------------------------------------------------------|


[Intro]

A


[Verse 1]

A       C#m   F#m
Drifting in a void
A     C#m     F#m
Contemplating nothing
Ddim           E               A
Thinking of a love that never was

(play intro)


[Verse 2]

A  C#m    F#m
Images of red
A       C#m      F#m
Weeping from the sun
Ddim           E               A                A7
Memories of a love that never was


[Middle 8]

             D              Dm               A
And there is nothing there, no one needs to cry
B              Bm              A
No one wonders why my face is lonely now
  Ddim               E         E7
A face that lives a lie


[Verse 3]

A      C#m   F#m
Living in a dream
A       C#m F#m
Fake hallucination
Ddim           E               A
Thinking of a love that never was

(play intro)


[Verse 4]

A     C#m   F#m
Lying in my bed
A      C#m  F#m
Gazing into nothing
Ddim           E               A                A7
Memories of a love that never was


[Middle 8]

             D              Dm               A
And there is nothing there, no one needs to cry
B              Bm              A
No one wonders why my face is lonely now
  Ddim               E         E7
A face that lives a lie


[Verse 5]

A     C#m   F#m
Living in a dream
A      C#m  F#m
Fake hallucination
Ddim           E               A
Thinking of a love that never was

(repeat intro until fade)
Suggest correction
Give kudos to tab author, rate the tab!
1 2 3 4 5
comments
print report bad tab
guest
You may want to rate the tab now too:
select rating
Wanna post a correction for this tab? Suggest correction