Oops, an error
Loading. Please wait.

Care Of Cell 44 Tab

version 1
version 1

Whole song

Interactive

9,838 views 6 this week
1 commentread comment
1 2 3 4 5
please rate
add to favorites
launch autoscroll
font size
0
reset
how to read this tab
guitar tuner
Tab Pro tools
  • play this tab
  • loop segment
  • change instrument
  • show fretboard
  • metronome
×
Best way to learn
"Care Of Cell 44"
Autoscroll
slow
fast
+/-
esc
set tempo
stop
Contributor
Care of Cell 44 (Rod Argent)
From the Zombies' 1968 album 'Odessey and Oracle.'


(Main)
E---------------------------------------------------------
B---------------------------------------------------------
G-----2------------2--------------------------------------
D---2---2-4--2-4-5----------------------------------------
A-0-------------------------------------------------------
E---------------------------------------------------------


G               Bm     Em          G       C       G  Am  C
Good morning to you, I hope you're feeling better, baby
G           Bm       Bb          (Main)
Thinking of me while you are far away
G                Bm     Em       G       C     G   Am  C
And counting the days until they set you free again
G            Bm      Bb             (Main)
Writing this letter, hoping you're OK    (etc.)
C     G  A                   D   C  C/B  C/A
Feels so good, you're coming home soon

E-6-6-6-6-6-6-6-6-6-6-6-6-6-6-6---------------------------
B-3-3-3-3-3-3-3-3-3-3-3-3-3-3-3---------------------------
G---------------------------------------------------------
D---------------------------------------------------------
A---------------------------------------------------------
E---------------------------------------------------------
 We'll walk in the way we used to walk
 And it could be so nice
 We'll talk in the way we used to talk
 And it could be so nice

E---------------------------------------------------------
B---------------------------------------------------------
G-4---5---4---5-4---4---5---4---5-4-----------------------
D---5---5---5-----5---3---3---3-----3---------------------
A---------------------------------------------------------
E---------------------------------------------------------


(Questions, comments, email at kakaroto@cybermesa.com)
comments
We did not receive enough feedback on this tab! Please rate:
print report bad tab
1 2 3 4 5
1 comment total.
0 reply
HeathrowGiant wrote on August 7 2002, 12:00 am

bass line
E-------------------------------
B-------------------------------
G-----2-----------0-2-----------
D---2----2-0--2-4----------------
A-0-----------------------------
E-------------------------------

I want to post or [tab]
guest
You may want to rate the tab now too:
select rating
Please do not post tabs as comments. Select "correction" instead!