Oops, an error
Loading. Please wait.

Dont Cry For Me bass

25 views 1 this week
no commentswrite comment
1 2 3 4 5
3 more votes to show rating
add to favorites
×
Save as Personal and add changes to this tab that will be seen only by you. Learn more ›
×
You can save this tab as Personal to edit and correct it or add notes. All changes will be seen only by you. Learn more »
launch autoscroll
font size
0
reset
guitar tuner
edit
Autoscroll
slow
fast
+/-
esc
set tempo
stop
Author
Difficulty
Tabbed by: 6METAL6BASSIST6
E-mail: petergriffinav@gmail.com

Tuning: EADG

0:04

G|----------------------------------------------------------------|
D|3-----------3---3-----------3---0-----------0---0---------------|
A|----------------------------------------------------------------|
E|----------------------------------------------------------------|

G|----------------------------------------------------------------|
D|0-----------0---0---------------0---------------0-----0-----0---|
A|----------------------------------------------------------------|
E|----------------------------------------------------------------|

0:10

G|----------------------------------------------------------------|
D|5-----------5---5---------------4-----------4---4---------------|
A|----------------------------------------------------------------|
E|----------------------------------------------------------------|

G|----------------------------------------------------------------|
D|5-----------5---5---------------4-----------4-----------4---2---|
A|----------------------------------------------------------------|
E|----------------------------------------------------------------|

G|----------------------------------------------------------------|
D|0-----------0-------------------4-----------4-------------------|
A|----------------------------------------------------------------|
E|----------------------------------------------------------------|

G|----------------------------------------------------------------|
D|----------------------------------------------------------------|
A|0-----------0-------------------3-----------3---3-----------3---|
E|----------------------------------------------------------------|

G|--------------------------------|
D|2-----------2---2---------------|
A|--------------------------------|
E|--------------------------------|

0:26

G|----------------------------------------------------------------|
D|3-----------3---3---------------0-----------0---0---------------|
A|----------------------------------------------------------------|
E|----------------------------------------------------------------|

G|------------------------------/-7---------------7-----7-----7---|
D|0-----------0---0-----------------------------------------------|
A|----------------------------------------------------------------|
E|----------------------------------------------------------------|

0:33

G|----------------------------------------------------------------|
D|5-----------5---5---------------4-----------4---4---------------|
A|----------------------------------------------------------------|
E|----------------------------------------------------------------|

G|----------------------------------------------------------------|
D|5-----------5---5---------------4-----------4-----------4---2---|
A|----------------------------------------------------------------|
E|----------------------------------------------------------------|

G|----------------------------------------------------------------|
D|0-----------0-------------------4-----------4-------------------|
A|----------------------------------------------------------------|
E|----------------------------------------------------------------|

G|----------------------------------------------------------------|
D|----------------------------------------------------------------|
A|0-----------0-------------------3-----------3---3---------------|
E|----------------------------------------------------------------|

G|--------------------------------|
D|2-----------2---2---------------|
A|--------------------------------|
E|--------------------------------|

0:48

G|----------------------------------------------------------------|
D|3-----------3---3---------------0-----------0---0---------------|
A|----------------------------------------------------------------|
E|----------------------------------------------------------------|

G|--------------------------------7-----------7-------7-----------|
D|0-----------0---0-----------------------------------------------|
A|------------------------------------------------------------7---|
E|----------------------------------------------------------------|

0:54

G|----------------------------------------------------------------|
D|7---7---7---7---7---7---7---7---5---5---5---5---5---5---5---5-/-|
A|----------------------------------------------------------------|
E|----------------------------------------------------------------|

G|----------------------------------------------------------------|
D|10--10--10--10--10--10--10--10\-3---3---3---3---3---3---3---3-/-|
A|----------------------------------------------------------------|
E|----------------------------------------------------------------|

G|----------------------------------------------------------------|
D|7---7---7---7---7---7---7---7---5---5---5---5---5---5---5---5---|
A|----------------------------------------------------------------|
E|----------------------------------------------------------------|

G|----------------------------------------------------------------|
D|3---3---3---3---3---3---3---3---0---------------0-----0-----0---|
A|----------------------------------------------------------------|
E|----------------------------------------------------------------|

1:08

G|----------------------------------------------------------------|
D|5-----------5---5---------------4-----------4---4---------------|
A|----------------------------------------------------------------|
E|----------------------------------------------------------------|

G|----------------------------------------------------------------|
D|5-----------5---5---------------4-----------4-----------4---2---|
A|----------------------------------------------------------------|
E|----------------------------------------------------------------|

G|----------------------------------------------------------------|
D|0-----------0-------------------4-----------4-------------------|
A|----------------------------------------------------------------|
E|----------------------------------------------------------------|

G|----------------------------------------------------------------|
D|----------------------------------------------------------------|
A|0-----------0-------------------3-----------3---3-----------3---|
E|----------------------------------------------------------------|

G|--------------------------------|
D|2-----------2---2---------------|
A|--------------------------------|
E|--------------------------------|

1:23

G|----------------------------------------------------------------|
D|3-----------3---3---------------0-----------0---0---------------|
A|----------------------------------------------------------------|
E|----------------------------------------------------------------|

G|--------------------------------------------7-------7-----------|
D|0-----------0---0---------------0-------------------------------|
A|------------------------------------------------------------7---|
E|----------------------------------------------------------------|

1:30

G|----------------------------------------------------------------|
D|7---7---7---7---7---7---7---7---5---5---5---5---5---5---5---5-/-|
A|----------------------------------------------------------------|
E|----------------------------------------------------------------|

G|----------------------------------------------------------------|
D|10--10--10--10--10--10--10--10\-3---3---3---3---3---3---3---3-/-|
A|----------------------------------------------------------------|
E|----------------------------------------------------------------|

G|----------------------------------------------------------------|
D|7---7---7---7---7---7---7---7---5---5---5---5---5---5---5---5---|
A|----------------------------------------------------------------|
E|----------------------------------------------------------------|

G|----------------------------------------------------------------|
D|3---3---3---3---3---3---3---3---0---------------0-----0---------|
A|----------------------------------------------------------------|
E|----------------------------------------------------------------|

1:44

G|----------------------------------------------------------------|
D|5-----------5---5---------------4-----------4---4---------------|
A|----------------------------------------------------------------|
E|----------------------------------------------------------------|

G|----------------------------------------------------------------|
D|5-----------5---5---------------4-----------4---------------2---|
A|----------------------------------------------------------------|
E|----------------------------------------------------------------|

G|----------------------------------------------------------------|
D|0-----------0-------------------4-----------4-------------------|
A|----------------------------------------------------------------|
E|----------------------------------------------------------------|

G|----------------------------------------------------------------|
D|----------------------------------------------------------------|
A|0-----------0-------------------3-----------3---3-----------3---|
E|----------------------------------------------------------------|

G|--------------------------------|
D|2-----------2---2---------------|
A|--------------------------------|
E|--------------------------------|

1:58

G|----------------------------------------------------------------|
D|3-----------3---3---------------0-----------0---0---------------|
A|----------------------------------------------------------------|
E|----------------------------------------------------------------|

G|----------------------------------------------------------------|
D|0-----------0---0---------------0-----------0---0---------------|
A|----------------------------------------------------------------|
E|----------------------------------------------------------------|

G|----------------------------------------------------------------|
D|3-----------3---3---------------0-----------0---0---------------|
A|----------------------------------------------------------------|
E|----------------------------------------------------------------|

G|--------------------------------|
D|0-------------------------------|
A|--------------------------------|
E|--------------------------------|

            
            
Suggest correction
Creating personal tab
Creating personal tab
You can edit any tab online and save it as your Personal.

You can edit, replace or remove any tab part or add personal notes – all changes will be seen only by you.

Personal tabs can be accessed anytime from any device, even offline.
Learn more »
Give kudos to tab author, rate the tab!
1 2 3 4 5
comments
print report bad tab
guest
You may want to rate the tab now too:
select rating
Wanna post a correction for this tab? Suggest correction