Oops, an error
Loading. Please wait.

Dont Go Away bass

19 views 1 this week
no commentswrite comment
1 2 3 4 5
3 more votes to show rating
add to favorites
×
Save as Personal and add changes to this tab that will be seen only by you. Learn more ›
×
You can save this tab as Personal to edit and correct it or add notes. All changes will be seen only by you. Learn more »
launch autoscroll
font size
0
reset
guitar tuner
edit
Autoscroll
slow
fast
+/-
esc
set tempo
stop
Author
Difficulty
Tabbed by: 6METAL6BASSIST6
E-mail: petergriffinav@gmail.com

Tuning: EADG

G|----|
D|----|
A|----|
E|5---|

G|----------------------------------------------------------------|
D|----------------------------------------------------------------| x5
A|5-------------------------------5-------------------------------|
E|----------------------------5-------------------------------5---|

G|----------------------------------------------------------------|
D|----------------------------------------------------------------|
A|5-------------------------------5-------------------------------|
E|----------------------------5-----------------------------------|

0:24

G|----------------------------------------------------------------|
D|4-----------4-----------4-------------------5-----------5-------|
A|----------------------------4-----------------------------------|
E|--------------------------------3-------------------------------|

G|----------------------------------------------------------------|
D|------------------------------------------------------------3---|
A|----------------------------4---5-----------5-----------5-------|
E|5-----------5-----------5---------------------------------------|

G|----------------------------------------------------------------|
D|4-----------4-----------4-------------------5-----------5-------|
A|----------------------------4-------------------------------5---|
E|--------------------------------3-------------------------------|

G|----------------------------------------------------------------|
D|----------------------------------------------------------------|
A|----------------------------------------------------------------|
E|5-----------5-----------5-------5-----------5-----------5-------|

G|----------/-7-----------------------------/-7-----------7-------|
D|----------------------------------------------------------------|
A|5-------------------------------5-------------------------------|
E|----------------------------------------------------------------|

0:42

G|----------------------------------------------------------------|
D|5---------------5-------5---------------------------------------|
A|------------5---------------5---3---------------------------3---|
E|--------------------------------------------5-----------5-------|

G|----------------------------------------------------------------|
D|3---------------------------4---5-----------------------5-------|
A|------------5-----------5-------------------5---------------5---|
E|----------------------------------------------------------------|

G|----------------------------------------------------------------|
D|--------------------------------3---------------------------4---|
A|3---------------------------3---------------5-----------5-------|
E|------------5-----------5---------------------------------------|

G|----------------------------------------------------------------|
D|5-------5---------------5---------------------------------------|
A|------------5---------------5---3---------------------------3---|
E|--------------------------------------------5-----------5-------|

G|--------------------------------|
D|3-------------------------------|
A|------------5-------------------|
E|--------------------------------|

0:59

G|----------------------------------------------------------------|
D|----------------------------------------------------------------|
A|----------------------------2---3-----------3-----------3---2---|
E|5-----------5-----------5---------------------------------------|

G|----------------------------------------------------------------|
D|----------------------------------------------------------------|
A|----------------------------2---3-----------3-----------3-------|
E|5-----------5-----------5---------------------------------------|

G|----------------------------------------------------------------|
D|----------------------------------------------------------------|
A|----------------------------------------------------------------|
E|1---1-------1---1---1-------1---3---3-------3---3---3-------3---|

G|----------/-7-----------------------------/-7-----------7-------|
D|----------------------------------------------------------------|
A|5-------------------------------5-------------------------------|
E|----------------------------------------------------------------|

1:14

G|----------------------------------------------------------------|
D|5-----------------------5---------------------------------------|
A|------------5---------------5---3---------------------------3---|
E|--------------------------------------------5-----------5-------|

G|----------------------------------------------------------------|
D|3---------------------------4---5-----------------------5-------|
A|------------5-----------5-------------------5---------------5---|
E|----------------------------------------------------------------|

G|----------------------------------------------------------------|
D|--------------------------------3---------------------------4---|
A|3---------------------------3---------------5-----------5-------|
E|------------5-----------5---------------------------------------|

G|----------------------------------------------------------------|
D|5-------5---------------5---------------------------------------|
A|------------5---------------5---3---------------------------3---|
E|--------------------------------------------5-----------5-------|

G|--------------------------------|
D|3-------------------------------|
A|------------5-----------5---3---|
E|--------------------------------|

1:31

G|----------------------------------------------------------------|
D|----------------------------------------------------------------|
A|----------------------------2---3-----------3-----------3---2---|
E|5-----------5-----------5---------------------------------------|

G|----------------------------------------------------------------|
D|----------------------------------------------------------------|
A|----------------------------2---3-----------3-----------3-------|
E|5-----------5-----------5---------------------------------------|

G|----------------------------------------------------------------|
D|----------------------------------------------------------------|
A|----------------------------------------------------------------|
E|1---1-------1---1---1-------1---3---3-------3---3---3-------5---|

1:42

G|----------------------------------------------------------------|
D|----------------------------------------------------------------| x4
A|5-------------------------------5-------------------------------|
E|----------------------------5-------------------------------5---|

G|----------------------------------------------------------------|
D|----------------------------------------------------------------|
A|5-------------------------------5-------------------------------|
E|----------------------------5-----------------------------------|

2:03

G|----------------------------------------------------------------|
D|4-----------4-----------4-------------------5-----------5-------|
A|----------------------------4-----------------------------------|
E|--------------------------------3-------------------------------|

G|----------------------------------------------------------------|
D|------------------------------------------------------------3---|
A|----------------------------4---5-----------5-----------5-------|
E|5-----------5-----------5---------------------------------------|

G|----------------------------------------------------------------|
D|4-----------4-----------4-------------------5-----------5-------|
A|----------------------------4-------------------------------5---|
E|--------------------------------3-------------------------------|

G|----------------------------------------------------------------|
D|----------------------------------------------------------------|
A|----------------------------------------------------------------|
E|5-----------5-----------5-------5-----------5-----------5-------|

G|----------/-7-----------------------------/-7-------------------|
D|----------------------------------------------------------------| x2
A|5-------------------------------5-------------------------------|
E|----------------------------------------------------------------|

G|----------/-7---------------------------------------------------|
D|----------------------------------------------------------------|
A|5-------------------------------5-------------------------------|
E|----------------------------------------------------------------|
Suggest correction
Creating personal tab
Creating personal tab
You can edit any tab online and save it as your Personal.

You can edit, replace or remove any tab part or add personal notes – all changes will be seen only by you.

Personal tabs can be accessed anytime from any device, even offline.
Learn more »
Give kudos to tab author, rate the tab!
1 2 3 4 5
comments
print report bad tab
guest
You may want to rate the tab now too:
select rating
Wanna post a correction for this tab? Suggest correction