Oops, an error
Loading. Please wait.

How We Were Before Chords

version 2
version 2

Whole song

625 views 6 this week
no commentswrite comment
1 2 3 4 5
please rate
add to favorites
launch autoscroll
font size
0
reset
transpose
0
reset
simplify chords
display chords
guitar tuner
Tab Pro tools
  • play this tab
  • loop segment
  • change instrument
  • show fretboard
  • metronome
×
Best way to learn
"How We Were Before"
Autoscroll
slow
fast
+/-
esc
set tempo
stop
Contributor
Difficulty
novice
Song: How we were before
Artist: The Zombies
Composer: Colin Blunstone
Album: Begin here
Tabbed by DJ
20th Aug 2012

D/A   = x00775 or x00232    Gm    = 355333
D     = xx0775 or xx0232    A     = x02220 or 577655
Dmaj7 = xx0222 or xx0675    A7    = x02223
D7    = xx0212 or x57575    Am9   = x77557
G     = 355433              Gadd9 = xx5435
                            Gm9   = 355335

***************************************************************************

[Intro]                                                 (The...)
    D/A      D                  D/A    D                 D/A
e |--------|----5------------0------|-----5----------0-------|
B |--------|-------7----7-----------|-------7---7------------|
G |--------|---------7----7---------|---------7---7----------|
D |--------|--0---------------------|---0--------------------|
A |--0--0--|---------------------0--|---------------------0--|
E |--------|------------------------|------------------------|


[Verse 1]
      D           Dmaj7              D7                G
The party's over, dawn-- breaking gradually through on us,
            Gm                D        A  A     A  D
Shows us ...how we were be - fore---!


[Verse 2]
 D                  Dmaj7                    D7             G
Why have we waited?  Been so lonely, con - tinually long to be ...again,
Gm                    D        A  A     A  D
    How we were be - fore---!


[Verse 3]
                G             Gm                   D
And as you've waited for me,      we will be to - gether,
    D7          G                  Gm               A        A7
And as you've waited for me, I'll leave you again never, ...ever!


[Verse 4]
D           Dmaj7              D7                G
So, remember we were lucky, mercifully turned to be ...again,
Gm                    D        A  A     A  D
    How we were be - fore---!


[Break]
           D                 Dmaj7                   D7     Am9
e|-----|---5--5--h7--5------|--5---5--h7---5-------|--5--5--h7--5--h7--5--|
B|-----|---7-----------7----|--7-------7------7----|--7------5------5-----|
G|-----|---7-------------7--|--6-------6--------6--|--5------5------5-----|
D|-----|---0----------------|--0-------0-----------|--7------7------7-----|
A|--0--|--------------------|----------------------|--5-------------------|
E|-----|--------------------|----------------------|----------------------|

    G    Gadd9 G           Gm  Gm9  Gm     D                  A        D
e|--3--3--h5---3-------|----3--5--5--3--|--2--2--3--2--0---|--0-0---0--2--|
B|--3------3------5----|----3--3--3-----|--3--3----------3-|--2-2---2--3--|
G|--4------4--------4--|----3--3--3-----|--2--2------------|--2-2---2--3--|
D|--5------5-----------|----5--5--5-----|--0--0------------|--2-2---2--0--|
A|---------------------|----5--5--5-----|------------------|--0-0---0-----|
E|---------------------|--3----3--3-----|------------------|--------------|


[Verse 5]
               G                 Gm                     D
And as you've  ...waited for me,      we will be to - gether,
    D7          G                  Gm               A        A7
And as you've waited for me, I'll leave you again never, ...ever!


[Verse 6]
D            Dmaj7                   D7                G
So, remember    ...we were lucky, mercifully turned to be ...again,
Gm                    D        A  A     A  D
    How we were be - fore---!
comments
We did not receive enough feedback on this tab! Please rate:
print report bad tab
1 2 3 4 5
I want to post or [tab]
guest
You may want to rate the tab now too:
select rating
Please do not post tabs as comments. Select "correction" instead!