Oops, an error
Loading. Please wait.

I Know She Will bass

31 views 1 this week
no commentswrite comment
1 2 3 4 5
3 more votes to show rating
add to favorites
×
Save as Personal and add changes to this tab that will be seen only by you. Learn more ›
×
You can save this tab as Personal to edit and correct it or add notes. All changes will be seen only by you. Learn more »
launch autoscroll
font size
0
reset
guitar tuner
edit
Autoscroll
slow
fast
+/-
esc
set tempo
stop
Author
Difficulty
Tabbed by: 6METAL6BASSIST6
E-mail: petergriffinav@gmail.com

Tuning: EADG

Re-tabbed.

G|----------------------------------------------------------------|
D|----------------------------------------------------------------| x2
A|--------------------------------7-------------------------------|
E|5---------------------------------------------------------------|

0:10

G|----------------------------------------------------------------|
D|----------------------------------------------------------------|
A|--------------------------------7-------------------------------|
E|5---------------------------------------------------------------|

G|--------------------------------|
D|----------------------------4---|
A|--------------------------------|
E|5-----------------------5-------|

G|----------------------------------------------------------------|
D|5-----------5-------5---4---------------------------------------|
A|----------------------------7---5-----------5-----------5-------|
E|------------------------------------------------------------5---|

G|----------------------------------------------------------------|
D|----------------------------------------------------------------|
A|6-----------6-----------6-------7-----------7-----------7-------|
E|----------------------------6-----------------------------------|

G|------------------------------------------------|
D|------------------------------------------------|
A|7-----7-----7---7---------------5-----5-----5---|
E|------------------------------------------------|

G|--------------------------------|
D|--------------------------------|
A|7-------------------------------|
E|--------------------------------|

0:31

G|----------------------------------------------------------------|
D|----------------------------------------------------------------|
A|--------------------------------7-------------------------------|
E|5---------------------------------------------------------------|

G|--------------------------------|
D|----------------------------4---|
A|--------------------------------|
E|5-----------------------5-------|

G|----------------------------------------------------------------|
D|5-----------5-------5---4---------------------------------------|
A|----------------------------7---5-----------5-----------5-------|
E|------------------------------------------------------------5---|

G|----------------------------------------------------------------|
D|----------------------------------------------------------------|
A|6-----------6-----------6-------7-----------7-----------7-------|
E|----------------------------6-----------------------------------|

G|----------------------------------------------------------------|
D|----------------------------------------------------------------|
A|7-----7-----7---7---------------5-----5-----5---7---------------|
E|----------------------------------------------------------------|

0:50

G|----------------------------------------------------------------|
D|----------------------------------------------------------------|
A|3---3-------3---3---3-------3-----------------------------------|
E|------------------------3-------3---3-------3---3---3-------3---|

G|----------------------------------------------------------------|
D|----------------------------------------------------------------|
A|--------------------------------2---2-------2---2---------------|
E|5---5-------5---5---5---0---5---------------------------5-------|

G|----------------------------------------------------------------|
D|----------------------------------------------------------------|
A|3---3-------3---3---3-------3-----------------------------------|
E|------------------------3-------3---3-------3---3---3-------3---|

G|--------------------------------|
D|--------------------------------|
A|--------------------------------|
E|5---5-------5---5---5-----------|

G|--------------------------------------------------|
D|--------------------------------------------------|
A|------------5-----5-------------------------------|
E|7-----7-------------------------------------------|

1:08

G|----------------------------------------------------------------|
D|----------------------------------------------------------------|
A|--------------------------------7-------------------------------|
E|5---------------------------------------------------------------|

G|--------------------------------|
D|----------------------------4---|
A|--------------------------------|
E|5-----------------------5-------|

G|----------------------------------------------------------------|
D|5-----------5-------5---4---------------------------------------|
A|----------------------------7---5-----------5-----------5-------|
E|------------------------------------------------------------5---|

G|----------------------------------------------------------------|
D|----------------------------------------------------------------|
A|6-----------6-----------6-------7-----------7-----------7-------|
E|----------------------------6-----------------------------------|

G|------------------------------------------------|
D|------------------------------------------------|
A|7-----7-----7---7---------------5-----5-----5---|
E|------------------------------------------------|

G|--------------------------------|
D|--------------------------------|
A|7-------------------------------|
E|--------------------------------|

1:27

G|----------------------------------------------------------------|
D|----------------------------------------------------------------|
A|--------------------------------7-----------7---7---------------|
E|5-----------5---5-----------------------------------------------|

G|--------------------------------|
D|----------------------------4---|
A|--------------------------------|
E|5-----------5---5-------5-------|

G|----------------------------------------------------------------|
D|5-----------5-------5---4---------------------------------------|
A|----------------------------7---5-----------5-----------5-------|
E|------------------------------------------------------------5---|

G|----------------------------------------------------------------|
D|----------------------------------------------------------------|
A|6-----------6-----------6-------7-----------7-----------7-------|
E|----------------------------6-----------------------------------|

G|----------------------------------------------------------------|
D|----------------------------------------------------------------|
A|7-----7-----7---7---------------5-----5-----5---7---------------|
E|----------------------------------------------------------------|

1:47

G|----------------------------------------------------------------|
D|----------------------------------------------------------------|
A|3---3-------3---3---3-------3-----------------------------------|
E|------------------------3-------3---3-------3---3---3-------3---|

G|----------------------------------------------------------------|
D|----------------------------------------------------------------|
A|--------------------------------2---2-------2---2---------------|
E|5---5-------5---5---5---0---5---------------------------5-------|

G|----------------------------------------------------------------|
D|----------------------------------------------------------------|
A|3---3-------3---3---3-------3-----------------------------------|
E|------------------------3-------3---3-------3---3---3-------3---|

G|--------------------------------|
D|--------------------------------|
A|--------------------------------|
E|5---5-------5---5---5-----------|

G|--------------------------------------------------|
D|--------------------------------------------------|
A|------------5-----5-------------------------------|
E|7-----7-------------------------------------------|

2:03

G|----------------------------------------------------------------|
D|----------------------------------------------------------------|
A|--------------------------------7-----------7---7---------------|
E|5-----------5---5-----------------------------------------------|

G|--------------------------------|
D|----------------------------4---|
A|--------------------------------|
E|5-----------5---5-------5-------|

G|----------------------------------------------------------------|
D|5-----------5-------5---4---------------------------------------|
A|----------------------------7---5-----------5-----------5-------|
E|------------------------------------------------------------5---|

G|----------------------------------------------------------------|
D|----------------------------------------------------------------|
A|6-----------6-----------6-------7-----------7---------------7---|
E|----------------------------6-----------------------------------|

G|--------------------------------------------------------------------|
D|--------------------------------------------------------------------|
A|7-----7-----7---7---------------5-----5-----5---8-------------------|
E|----------------------------------------------------------------5---|
Suggest correction
Creating personal tab
Creating personal tab
You can edit any tab online and save it as your Personal.

You can edit, replace or remove any tab part or add personal notes – all changes will be seen only by you.

Personal tabs can be accessed anytime from any device, even offline.
Learn more »
Give kudos to tab author, rate the tab!
1 2 3 4 5
comments
print report bad tab
guest
You may want to rate the tab now too:
select rating
Wanna post a correction for this tab? Suggest correction