Oops, an error
Loading. Please wait.

Ill Keep Trying Chords

31 views 3 this week
no commentswrite comment
1 2 3 4 5
3 more votes to show rating
add to favorites
launch autoscroll
font size
0
reset
transpose
0
reset
simplify chords
display chords
guitar tuner
Autoscroll
slow
fast
+/-
esc
set tempo
stop
Help us to improve Ultimate-Guitar.com Take our survey!
×
Author
Difficulty
intermediate
Intro tab (played throughout verses):
F
e|----------------------------------------10--8--11--10--8--------------------|
B|--------11--10--8-------------11--------------------------------------------|
G|-10-------------------10----------------------------------------------------|
D|----------------------------------------------------------------------------|
A|----------------------------------------------------------------------------|
E|----------------------------------------------------------------------------|

[Intro]
F
(play intro tab x2)

[Verse 1]
Gm                           Am      Dm
        In the night you’ll hear me crying
F                           Eb       Bb   F
        That’s because I’m sad that I’m away from you
Gm                           Am     Dm
        If there’s something on my mind
F                        Eb      Bb          F
        Take no notice, I’m just trying to think of something else

[Pre-chorus]
Dm                   G7
        If I worry, that’s my business
Dm                 G7
        Anytime I want to cry
Dm                    G7
        If I want to keep this sickness
Bb                     G
        Keep away from me,

[Chorus]
                          F               Bbmaj7
        ‘Cause I’ll keep trying, ‘til you come on home
              F              Bbmaj7
        Keep trying, ‘til my time has come
              F              Bbmaj7           F
        Keep trying, ‘til you come on home to me

[Interlude]
(play intro tab x1)

[Verse 2]
Gm                             Am    Dm
        You thought you could throw away
F                     Eb       Bb      F
        Everything I gave you just to say a word
Gm                         Am        Dm
        Can’t you see that you were wrong
F                        Eb       Bb       F
        Can’t you see I knew how long you lied and cheated

[Pre-chorus]
Dm                   G7
        If I worry, that’s my business
Dm                 G7
        Anytime I want to cry
Dm                    G7
        If I want to keep this sickness
Bb                     G
        Keep away from me,

[Chorus]
                          F              Bbmaj7
        ‘Cause I’ll keep trying, ‘til you come on home
              F             Bbmaj7
        Keep trying, ‘til my time has come
              F              Bbmaj7           F 
        Keep trying, ‘til you come on home to me

[Interlude]
(play intro tab x1)

[Solo]
Gm                 Am     Dm            F
e|-----------------------------------------------------------------------------------|
B|------------------1--3-------------------------------------------------------------|
G|-------------2-----------2--2--2--0------------------------------------------------|
D|-5--3--5------------------------------3--------------------------------------------|
A|-----------------------------------------------------------------------------------|
E|-----------------------------------------------------------------------------------|

F                 Eb   Bb           F                                  Dm
e|-----------------------------------------------------------------------------------|
B|-------------1--4--6--3--1--------1--1--1--3---------------------------------------|
G|-2--0--2----------------------3----------------2--3--0--2--0-----------------------|
D|----------------------------------------------------------------3--2--0------------|
A|-----------------------------------------------------------------------------------|
E|-----------------------------------------------------------------------------------|

[Pre-chorus]
Dm                   G7
        If I worry, that’s my business
Dm                 G7
        Anytime I want to cry
Dm                    G7
        If I want to keep this sickness
Bb                     G
        Keep away from me,

[Chorus]
                          F              Bbmaj7
        ‘Cause I’ll keep trying, ‘til you come on home
              F             Bbmaj7
        Keep trying, ‘til my time has come
              F              Bbmaj7           F
        Keep trying, ‘til you come on home to me

[Coda]
F       Bb
(play intro tab x2)

End on F7
Suggest correction
Give kudos to tab author, rate the tab!
1 2 3 4 5
comments
print report bad tab
guest
You may want to rate the tab now too:
select rating
Wanna post a correction for this tab? Suggest correction