Oops, an error
Loading. Please wait.

Indication bass

55 views 3 this week
no commentswrite comment
1 2 3 4 5
2 more votes to show rating
add to favorites
×
Save as Personal and add changes to this tab that will be seen only by you. Learn more ›
×
You can save this tab as Personal to edit and correct it or add notes. All changes will be seen only by you. Learn more »
launch autoscroll
font size
0
reset
guitar tuner
edit
Autoscroll
slow
fast
+/-
esc
set tempo
stop
Author
Difficulty
Tabbed by: 6METAL6BASSIST6
E-mail: petergriffinav@gmail.com

Tuning: EADG

Re-tabbed.

G|------------------------------------------------------------------------|
D|------------------------------------------------------------------------|
A|------------------------------------------------------------------------|
E|------------------------------------------------------------------------|

G|----------------------------------------------------------------|
D|----4---6---7---------------4-----------------------------------|
A|7-------------------4---5-------7-------7-----------------------|
E|----------------7-----------------------------------------------|

0:08

G|----------------------------------------------------------------|
D|------------7-------5-------------------------------------------|
A|----4---7---------------7---4---5-------5-----------5---3---2---|
E|5-----------------------------------------------5---------------|

G|----------------------------------------------------------------|
D|------------7---------------------------------------------------|
A|----4---7---------------7---4---5-------5-----------5---3---2---|
E|5-----------------------------------------------5---------------|

G|----------------------------------------------------------------|
D|----------------------------------------------------------------|
A|----------------------------------------------------------------|
E|5---------------------------------------------------------------|

G|--------------------------------|
D|--------------------------------|
A|7---7---7---7---7---7---7-------|
E|--------------------------------|

0:18

G|----------------------------------------------------------------|
D|7---7---7---7---7---7---7---7---7---7---7---7---7---7---7---7---|
A|----------------------------------------------------------------|
E|----------------------------------------------------------------|

G|----------------------------------------------------------------|
D|----------------------------------------------------------------|
A|10--10--10--10--10--10--10--10--10--10--10--10--10--10--10--10--|
E|----------------------------------------------------------------|

G|----------------------------------------------------------------|
D|----------------------------------------------------------------|
A|9---9---9---9---9---9---9---9---9---9---9---9---9---9---9---9---|
E|----------------------------------------------------------------|

G|----------------------------------------------------------------|
D|----------------------------------------------------------------|
A|8---8---8---8---8---8---8---8---7-------7-----------------------|
E|----------------------------------------------------------------|

0:32

G|----------------------------------------------------------------|
D|------------7-------5-------------------------------------------| x2
A|----4---7---------------7---4---5-------5-----------5---3---2---|
E|5-----------------------------------------------5---------------|

G|----------------------------------------------------------------|
D|----------------------------------------------------------------|
A|----------------------------------------------------------------|
E|5---------------------------------------------------------------|

G|--------------------------------|
D|--------------------------------|
A|7---7---7---7---7---7---7-------|
E|--------------------------------|

0:42

G|----------------------------------------------------------------|
D|7---7---7---7---7---7---7---7---7---7---7---7---7---7---7---7-/-|
A|----------------------------------------------------------------|
E|----------------------------------------------------------------|

G|----------------------------------------------------------------|
D|----------------------------------------------------------------|
A|10--10--10--10--10--10--10--10--10--10--10--10--10--10--10--10--|
E|----------------------------------------------------------------|

G|----------------------------------------------------------------|
D|----------------------------------------------------------------|
A|9---9---9---9---9---9---9---9---9---9---9---9---9---9---9---9---|
E|----------------------------------------------------------------|

G|----------------------------------------------------------------|
D|----------------------------------------------------------------|
A|8---8---8---8---8---8---8---8---7-----------7-----------7-------|
E|----------------------------------------------------------------|

0:54

G|----------------------------------------------------------------|
D|--------------------------------7---5-------7---5-------7-------|
A|5---3---2---5---3---2---5---3-----------7-----------7-------7---|
E|----------------------------------------------------------------|

G|----------------------------------------------------------------|
D|--------------------------------7---5-------7---5-------5-------|
A|5---3---2---5---3---2---5---------------7-----------7-------7---|
E|----------------------------------------------------------------|

G|----------------------------------------------------------------|
D|----------------------------------------------------------------|
A|--------------------------------4---4---4---4---4---4---4---4---|
E|7---7---7---7---7---7---7---7-----------------------------------|

G|----------------------------------------------------------------|
D|----------------------------------------------------------------|
A|5---5---5---5---5---5---5---5---7---------------5---5---5---6---|
E|----------------------------------------7---7-------------------|

G|--------------------------------|
D|--------------------------------|
A|7-------7-----------------------|
E|--------------------------------|

1:08

G|----------------------------------------------------------------|
D|------------7-------5-------------------------------------------| x2
A|----4---7---------------7---4---5-------5-----------5---3---2---|
E|5-----------------------------------------------5---------------|

G|----------------------------------------------------------------|
D|----------------------------------------------------------------|
A|----------------------------------------------------------------|
E|5---------------------------------------------------------------|

G|--------------------------------|
D|--------------------------------|
A|7---7---7---7---7---7---7-------|
E|--------------------------------|

1:19

G|----------------------------------------------------------------|
D|7---7---7---7---7---7---7---7---7---7---7---7---7---7---7---7---|
A|----------------------------------------------------------------|
E|----------------------------------------------------------------|

G|----------------------------------------------------------------|
D|----------------------------------------------------------------|
A|10--10--10--10--10--10--10--10--10--10--10--10--10--10--10--10--|
E|----------------------------------------------------------------|

G|----------------------------------------------------------------|
D|----------------------------------------------------------------|
A|9---9---9---9---9---9---9---9---9---9---9---9---9---9---9---9---|
E|----------------------------------------------------------------|

G|----------------------------------------------------------------|
D|----------------------------------------------------------------|
A|8---8---8---8---8---8---8---8---7-----------7-----------7-------|
E|----------------------------------------------------------------|

1:32

G|----------------------------------------------------------------|
D|7---7---7---7---7---7---7---7---7---7---7---7---7---7---7---7---|
A|----------------------------------------------------------------|
E|----------------------------------------------------------------|

G|----------------------------------------------------------------|
D|----------------------------------------------------------------|
A|10--10--10--10--10--10--10--10--10--10--10--10--10--10--10--10--|
E|----------------------------------------------------------------|

G|----------------------------------------------------------------|
D|----------------------------------------------------------------|
A|9---9---9---9---9---9---9---9---9---9---9---9---9---9---9---9---|
E|----------------------------------------------------------------|

G|------------------------------------9-------9---9---------------|
D|----------------------------------------------------------------|
A|8---8---8---8---8---8---8---8---7-------7-----------7---7---7---|
E|----------------------------------------------------------------|

1:46

G|----------------------------------------------------------------|
D|----------------------------------------------------------------| x19
A|----------------------------------------------------------------|
E|5---5---5---5---5---5---5---5---5---5---5---5---5---5---5---5---|

2:45

G|----------------------------------------------------------------|
D|--------7---7---7---5---5---5---3---3---------------------------|
A|----------------------------------------5---5---5---7---7---7---|
E|5---5-----------------------------------------------------------|

G|----------------------------------------------------------------|
D|--------7---7---7---5---5---5---3---3---------------------------|
A|7---7-----------------------------------5---5---5---7-----------|
E|----------------------------------------------------------------|

            
            
Suggest correction
Creating personal tab
Creating personal tab
You can edit any tab online and save it as your Personal.

You can edit, replace or remove any tab part or add personal notes – all changes will be seen only by you.

Personal tabs can be accessed anytime from any device, even offline.
Learn more »
Give kudos to tab author, rate the tab!
1 2 3 4 5
comments
print report bad tab
guest
You may want to rate the tab now too:
select rating
Wanna post a correction for this tab? Suggest correction