Oops, an error
Loading. Please wait.

Leave Me Be Chords

version 2
version 2

Whole song

2,022 views 21 this week
2 commentsread comments
1 2 3 4 5
excellent!
x 6
add to favorites
launch autoscroll
font size
0
reset
transpose
0
reset
simplify chords
display chords
guitar tuner
Tab Pro tools
  • play this tab
  • loop segment
  • change instrument
  • show fretboard
  • metronome
×
Best way to learn
"Leave Me Be"
Autoscroll
slow
fast
+/-
esc
set tempo
stop
Contributor
Difficulty
novice
Song: Leave me be
Artist: The Zombies
Composer: Chris White
Album: Begin here
Tabbed by: DJ
26th Aug 2012

Em    = 022000   G  = 320033   F6 = 100211
C     = x32010   D  = xx0232   Am = x02210
Fmaj7 = 103210   D7 = xx0212

*******************************************************************************

[Intro]
   Em             C            Fmaj7            G
|  /  /  /  /  |  /  /  /  /  |  /  /  /  /  |  /  /  /  /  |


[Verse 1]
Em                   C              Fmaj7                    G
If it seems that ...I'm too quiet,        that's 'cause I'm missing her,
    Em                 C            Fmaj7                    G
My mind tells me I ...have to fight,      but I can't help missing her!


[Chorus]
                     F6
                              You better leave me alone,
e|---------------|---1------|
B|---------------|---1------|
G|---0-----------|---2------|
D|-------0---2---|---0------|
A|---------------|---0------|
E|---------------|---1------|

                     Em
                              You better leave me alone,
e|---------------|---0------|
B|---------------|---0------|
G|-------2-------|---0------|
D|-----------3---|---2------|
A|---3-----------|---2------|
E|---------------|---0------|

        Em                 C                Fmaj7         G
Until...I can...think a - bout her without feeling sorry for myself!


[Bridge]
Em                      C                 G
    You better leave me be, till I don't need----- her anymore,
Em                 C               D                D7
    I don't wanna meet again un - til I'm sure I'm over her!


[Verse 2]
         Em            C             Fmaj7                 G
By my - self, feeling tired & wanting,     is not like I thought it would be,
 Em                 C                Fmaj7                           G
Love just cannot...end at parting,          my world's dropped from under me!


[Chorus]
                     F6
                               You better leave me alone,
e|---------------|---1------|
B|---------------|---1------|
G|---0-----------|---2------|
D|-------0---2---|---0------|
A|---------------|---0------|
E|---------------|---1------|

                     Em
                                You better leave me alone,
e|---------------|---0------|
B|---------------|---0------|
G|-------2-------|---0------|
D|-----------3---|---2------|
A|---3-----------|---2------|
E|---------------|---0------|

        Em                 C                Fmaj7         G
Until...I can...think a - bout her without feeling sorry for myself!


[Bridge]
Em                      C                 G
    You better leave me be, till I don't need----- her anymore,
Em                 C               D                D7
    I don't wanna meet again un - til I'm sure I'm over her!


[Instrumental Bridge]
     Em              C                    Fmaj7            G
e|---0---3--0--3--|--0---3--0--3--------|--------------|----------------|
B|---0------------|--1------------------|--1--/3---/5--|--0----------0--|
G|---0------------|--0------------------|--2--/4---/5--|--0--------0----|
D|---2------------|--2------------5-/7--|--------------|---------0------|
A|---2------------|--3------------------|--------------|-------2--------|
E|---0------------|---------------------|--------------|-----3----------|

     Em              C                    Fmaj7            G
e|---0---3--0--3--|--0---3--0--3--------|---------------|---------------|
B|---0------------|--1------------------|--1--/3---/5---|--0------------|
G|---0------------|--0------------------|--2--/4---/5---|--0------------|
D|---2------------|--2------------5-/7--|---------------|---------------|
A|---2------------|--3------------------|---------------|---------------|
E|---0------------|---------------------|---------------|---------------|


[Coda]
                     F6
                                Oh - oh, oh - oh, oh - woh!
e|---------------|---1------|
B|---------------|---1------|
G|---0-----------|---2------|
D|-------0---2---|---0------|
A|---------------|---0------|
E|---------------|---1------|

                    Em
                               Oh - oh, oh - oh, oh - woh!
e|---------------|---0------|
B|---------------|---0------|
G|-------2-------|---0------|
D|-----------3---|---2------|
A|---3-----------|---2------|
E|---------------|---0------|


                     Am
e|---------------|----0----||
B|---------------|----1----||
G|---------------|----2----||
D|---2--0--2-----|----2----||
A|---------------|----0----||
E|---------------|---------||
comments
print report bad tab
2 comments total.
0 reply
adriaticoboy wrote on February 9 2016, 03:04 pm

Great tab, but for me the pre-chorus (and the coda) sounds better with the following chords:

Dm7/A
You better leave me alone,
e|---------------|---1------|
B|---------------|---1------|
G|---0-----------|---2------|
D|-------0---2---|---0------|
A|---------------|---0------|
E|---------------|----------|

Em
You better leave me alone,
e|---------------|---0------|
B|---------------|---0------|
G|-------2-------|---0------|
D|-----------3---|---2------|
A|---3-----------|---2------|
E|---------------|---0------|

0 reply
DiddyD wrote on February 9 2016, 05:08 pm

Thanks for the suggestion. After having another listen I agree the Em sounds right, rather than the Cmaj7. The Dm7/A sounds good, but I still think the root is an F, listening to the bass guitar. As a compromise I think the F6 has the best of both worlds, so I've amended my tab accordingly.
Thanks again for your kind comment.

I want to post or [tab]
guest
You may want to rate the tab now too:
select rating
Please do not post tabs as comments. Select "correction" instead!