Oops, an error
Loading. Please wait.

Maybe After Hes Gone Tab

2,454 views 12 this week
no commentswrite comment
1 2 3 4 5
accurate
x 2
add to favorites
launch autoscroll
font size
0
reset
how to read this tab
guitar tuner
Tab Pro tools
  • play this tab
  • loop segment
  • change instrument
  • show fretboard
  • metronome
Autoscroll
slow
fast
+/-
esc
set tempo
stop
Contributor
Difficulty
Maybe After Hes Gone: The Zombies

Intro/Verse:

   Em			Dsus
e|------0-----0---0-----0-----0---0-----0-----0---0-------|
B|------0-----0---0-----0-----0---0-----1-----1---1-------|
G|--------------------------------------------------------|
D|----5---5-----------5---5-----------2---2---------------|
A|--7-------7---7---5-------5---5---3-------3---3---------|
E|--------------------------------------------------------|

1._________________________    2.______
   Am	 Bm				 E
e|------0-----2---2---------|--0-------|
B|------1-----3---3--------o|--0-------|
G|--------------------------|--1-------|
D|----2---2-----------------|----------|
A|--0-------2---2----------o|----------|
E|--------------------------|--0-------|

Bridge:

   Dm    Em   F    G
e|-----------------------|
B|--6----8----10---12----|
G|--7----9----10---12----|
D|--7----9----10---12----|
A|--5----7----8----10----|
E|-----------------------|

Em			 Dsus
She told me she loved me
C			  Am		Bm
With words as soft as morning rain
Em			    	    Dsus
But the light that fell upon me
     C			E
Turned to shadow when he came...

A			  B
Maybe after he's gone
  Dm			 A
She'll come back, love me again
A			  B
Maybe after he's gone
		  Dm			 A
She'll come back, want me again

Em		 Dsus
I remember joy and pain
    C				Am	   Bm
Her smile, her tears are part of me
Em			   Dsus
I feel I'll never breathe again
  C				    E
I feel life's gone from me...

Chorus

Dm
All the days
    Em
And all the nights
    F			  G
Are time just passing by
    Dm			   Em
And all the dreams I'm dreaming now
F				  G
Hide the tears that I cry...

Em	Dsus

  C
I feel so cold
    Am	Bm
I'm on my own
	  Em			  Dsus
As the night folds in around me
	 C
Night surrounds me
    E
I'm alone...

Chorus x3


comments
We did not receive enough feedback on this tab! Please rate:
print report bad tab
1 2 3 4 5
I want to post or [tab]
guest
You may want to rate the tab now too:
select rating
Please do not post tabs as comments. Select "correction" instead!