Oops, an error
Loading. Please wait.

Shes Not There chords

version 4
version 4

Whole song

  • Slightly different chords, arranged to better help... Show more
  • Includes intro and breaks and correct chorus chords.

Interactive

1,264 views 21 this week
no commentswrite comment
1 2 3 4 5
x 6
add to favorites
×
Save as Personal and add changes to this tab that will be seen only by you. Learn more ›
×
You can save this tab as Personal to edit and correct it or add notes. All changes will be seen only by you. Learn more »
launch autoscroll
font size
0
reset
transpose
0
reset
simplify chords
display chords
guitar tuner
edit
Autoscroll
slow
fast
+/-
esc
set tempo
stop
Author
Difficulty
About this tab version
Includes intro and breaks and correct chorus chords. Was this info helpful? Yes No
Strumming
There is no strumming pattern for this song yet. and get +5 IQ
Song: She's not there
Artist: The Zombies
Composer: Rod Argent

Tabbed by DJ ('DiddyD' on ultimateGuitar.com)
30th Apr 2016

Am  = x02210   A    = x02220             C     = x32010
D6  = xx0432   A4   = x02230             Cadd9 = x32030
Am7 = x02213   D/F# = 20023x or xx4232   E     = 022100
F   = 133211   Dm/F = 10023x or xx3231   E7    = 022130
D   = xx0232   Em   = 022000             A7    = x02020
               Em7  = 022030

*******************************************************

[Intro]
          Am     D6     Am7     D6
e |-----|----0----2---|-----3----2----|
B |-----|----1----3---|-----1----3----|
G |-----|----2----4---|-----2----4----|
D |--2--|----2----0---|-----2----0--2-|
A |-----|--0----------|---0-----------|
E |-----|-------------|---------------|

     Am      D6    Am7      D6
e |-----0----2---|-----3----2-----|
B |-----1----3---|-----1----3-----|
G |-----2----4---|-----2----4-----|
D |-----2----0---|-----2----0--2--|
A |---0----------|---0------------|
E |--------------|----------------|


[Verse 1]
Am                 D         Am7   D
    Well, no one told me a - bout her, 
Am       F             Am  D6
    The way she lied, 
Am                D          Am7   D
    Well, no one told me a - bout her, 
Am             F            A   A4 A
    How many people cried!


[Chorus]
      A       D/F#    Dm/F        Am     A4 Am
But, it's too late to say you're sorry,
     Am      Em     Em7           Am     A4 Am
How would I know?   Why should I care?
  Am           D/F#   Dm/F       C      Cadd9
Please, don't bother trying to find her,
       C    E
She's not there------,
E7                                 Am
   Well, let me tell you 'bout the way she looked,
D               Am          F           Am
   The way she acted, the colour of her hair,
D                 Am
   Her voice was soft and cool,
F                 Am
   Her eyes were clear and bright,
D                  A
   But she's not there-----!


[Bass guitar link]
e |-----------------|
B |-----------------|
G |-----------------|
D |------2-0---3----|
A |--0-3-----3---3--|
E |-----------------|


[Verse 2]
     Am     D6      Am7     D6
e |-----0----2---|-----3----2-----| [x2]
B |-----1----3---|-----1----3-----|
G |-----2----4---|-----2----4-----|
D |-----2----0---|-----2----0--2--|
A |---0----------|---0------------|
E |--------------|----------------|

Am                D          Am7   D
    Well, no one told me a - bout her,
Am         F           Am    D6
    What could I do?
Am                D          Am7   D
    Well, no one told me a - bout her,
Am           F             A   Asus4 A
    Though they all knew!


[Chorus]
      A       D/F#    Dm/F        Am    A4 Am
But, it's too late to say you're sorry,
Am           Em     Em7           Am    A4 Am
How would I know?   Why should I care?
  Am           D/F#   Dm/F       C      Cadd9
Please, don't bother trying to find her,
       C    E
She's not there------,
E7                                 Am
   Well, let me tell you 'bout the way she looked,
D               Am          F           Am
   The way she acted, the colour of her hair,
D                 Am
   Her voice was soft and cool,
F                 Am
   Her eyes were clear and bright,
D                  A
   But she's not there-----!


[Instrumental Break]
e |-------------|
B |-------------|
G |-------------|
D |--2-2--0-----|
A |----------3--|
E |-------------|

     Am     D6     Am7     D6
e |-----0----2---|-----3----2-----| [x3]
B |-----1----3---|-----1----3-----|
G |-----2----4---|-----2----4-----|
D |-----2----0---|-----2----0--2--|
A |---0----------|---0------------|
E |--------------|----------------|

    Am     D6    A                   A7
e |----0---2--|--0-0-0-0-0-0-0-0--|--0-0-0-0-0-0-0-0--|
B |----1---0--|--2-2-2-2-2-2-2-2--|--2-2-2-2-2-2-2-2--|
G |----2---2--|--2-2-2-2-2-2-2-2--|--0-0-0-0-0-0-0-0--|
D |----2---0--|--2-2-2-2-2-2-2-2--|--2-2-2-2-2-2-2-2--|
A |--0--------|--0-0-0-0-0-0-0-0--|--0-0-0-0-0-0-0-0--|
E |-----------|-------------------|-------------------|


[Chorus]
A7               D/F#    Dm/F        Am    A4 Am
   But, it's too late to say you're sorry,
Am           Em     Em7           Am    A4 Am
How would I know?   Why should I care?
  Am           D/F#   Dm/F       C      Cadd9
Please, don't bother trying to find her,
       C    E
She's not there------,
E7                                 Am
   Well, let me tell you 'bout the way she looked,
D               Am          F           Am
   The way she acted, the colour of her hair,
D                 Am
   Her voice was soft and cool,
F                 Am
   Her eyes were clear and bright,
D                  A
   But she's not there-----!

            
            
Suggest correction
Creating personal tab
Creating personal tab
You can edit any tab online and save it as your Personal.

You can edit, replace or remove any tab part or add personal notes – all changes will be seen only by you.

Personal tabs can be accessed anytime from any device, even offline.
Learn more »
comments
print report bad tab
guest
You may want to rate the tab now too:
select rating
Wanna post a correction for this tab? Suggest correction