Oops, an error
Loading. Please wait.

Will You Still Love Me Tomorrow bass

94 views 1 this week
no commentswrite comment
1 2 3 4 5
3 more votes to show rating
add to favorites
×
Save as Personal and add changes to this tab that will be seen only by you. Learn more ›
×
You can save this tab as Personal to edit and correct it or add notes. All changes will be seen only by you. Learn more »
launch autoscroll
font size
0
reset
guitar tuner
edit
Autoscroll
slow
fast
+/-
esc
set tempo
stop
Author
Difficulty
Tabbed by: 6METAL6BASSIST6
E-mail: petergriffinav@gmail.com

Tuning: EADG

G|----|
D|----|
A|----|
E|0---|

G|----------------------------------------------------------------|
D|----------------------------------------------------------------|
A|----------------------------------------------------------------|
E|5-----------5---5-------5---0---5-----------5---------------0---|

G|----------------------------------------------------------------|
D|----------------------------------------------------------------|
A|----------------------------------------------------------------|
E|5-----------5---------------0---5-----------5---------------0---|

0:08

G|----------------------------------------------------------------|
D|----------------------------------------------------------------|
A|----------------------------------------------------------------|
E|5-----------5---------------0---5-----------5-----------5-------|

G|----------------------------------------------------------------|
D|----------------------------------------------------------------|
A|--------------------------------7-----------7---7---------------|
E|5-----------5-----------5---7---------------------------0-------|

G|----------------------------------------------------------------|
D|----------------------------------------------------------------|
A|----------------------------7-----------------------------------|
E|5-----------5-------------------5-----------5---------------7---|

G|----------------------------------------------------------------|
D|----------------------------------------------------------------|
A|7-----------7-------------------7-----------7-------------------|
E|----------------------------7-----------------------------------|

0:21

G|----------------------------------------------------------------|
D|----------------------------------------------------------------|
A|4-----------4-------------------4-----------4-----------4-------|
E|----------------4-------------------------------4---------------|

G|----------------------------------------------------------------|
D|4-----------4-------------------4---------------4---------------|
A|----------------4---------------------------------------7-------|
E|----------------------------------------------------------------|

G|----------------------------------------------------------------|
D|----------------------------------------------------------------|
A|5-----------5-----------5-------7-----------7-----------7-------|
E|----------------5-------------------------------7---------------|

G|----------------------------------------------------------------|
D|----------------------------------------------------------------|
A|----------------------------------------------------------------|
E|5-----------5---0---------------5-----------5---0---------------|

0:34

G|----------------------------------------------------------------|
D|----------------------------------------------------------------|
A|----------------------------------------------------------------|
E|5-----------5---0---------------5-----------5---0---------------|

G|----------------------------------------------------------------|
D|----------------------------------------------------------------|
A|--------------------------------7-----------7-----------7-------|
E|7-----------7-----------5---7-------------------7---------------|

G|----------------------------------------------------------------|
D|----------------------------------------------------------------|
A|----------------------------------------------------------------|
E|5-----------5---0---------------5-----------5---0-------5---7---|

G|----------------------------------------------------------------|
D|----------------------------------------------------------------|
A|7-----------7-------------------7-----------7-----------7-------|
E|----------------7-------------------------------7---------------|

0:48

G|----------------------------------------------------------------|
D|----------------------------------------------------------------|
A|4-----------4-------------------4-----------4-----------4-------|
E|----------------4-------------------------------4---------------|

G|----------------------------------------------------------------|
D|4-----------4-------------------4---------------4---------------|
A|----------------4---------------------------------------7-------|
E|----------------------------------------------------------------|

G|----------------------------------------------------------------|
D|----------------------------------------------------------------|
A|5-----------5-----------5-------7-----------7-----------7-------|
E|----------------5-------------------------------7---------------|

G|----------------------------------------------------------------|
D|----------------------------------------------------------------|
A|------------------------------------------------------------4---|
E|5-----------5---0---------------5-----------5-----------5-------|

1:02

G|----------------------------------------------------------------|
D|----------------------------------------------------------------|
A|5-----------5-------------------5-----------5-----------5-------|
E|----------------5-------------------------------5---------------|

G|----------------------------------------------------------------|
D|----------------------------------------------------------------|
A|4-----------4-------------------4-----------4-----------4-------|
E|----------------4-------------------------------4---------------|

G|----------------------------------------------------------------|
D|----------------------------------------------------------------|
A|5-----------5-------------------5-----------5-----------5-------|
E|----------------5-------------------------------5---------------|

G|----------------------------------------------------------------|
D|----------------------------------------------------------------|
A|----------------------------------------------------------------|
E|5-----------5---0---------------5-----------5-----------5-------|

1:16

G|----------------------------------------------------------------|
D|----------------------------------------------------------------|
A|5-----------5-------------------5-----------5-----------5-------|
E|----------------5-------------------------------5---------------|

G|----------------------------------------------------------------|
D|----------------------------------------------------------------|
A|4-----------4-------------------4-----------4-----------4-------|
E|----------------4-------------------------------4---------------|

G|----------------------------------------------------------------|
D|----------------------------------------------------------------|
A|--------0---0---0-----------------------2---2---2---------------|
E|----------------------------------------------------------------|

G|----------------------------------------------------------------|
D|----------------------------------------------------------------|
A|2-----------2-----------2-------7-----------7-----------7-------|
E|----------------2-------------------------------7---------------|

1:30

G|----------------------------------------------------------------|
D|----------------------------------------------------------------|
A|----------------------------------------------------------------|
E|5-----------5---0---------------5-----------5---0---------------|

G|----------------------------------------------------------------|
D|----------------------------------------------------------------|
A|--------------------------------7-----------7-----------7-------|
E|7-----------7-----------7-----------------------7-----------7---|

G|----------------------------------------------------------------|
D|----------------------------------------------------------------|
A|----------------------------------------------------------------|
E|5-----------5---0---------------5-----------5---0---------------|

G|----------------------------------------------------------------|
D|----------------------------------------------------------------|
A|7-----------7-------------------7-----------7-----------7-------|
E|----------------7-------------------------------7---------------|

1:44

G|------------6---------------------------------------------------|
D|----------------------------------------------------------------|
A|4-------------------------------4-----------4-----------4-------|
E|----------------4-------------------------------4---------------|

G|----------------------------------------------------------------|
D|4-----------4-------------------4---------------4---------------|
A|----------------4---------------------------------------7-------|
E|----------------------------------------------------------------|

G|----------------------------------------------------------------|
D|----------------------------------------------------------------|
A|5-----------5-----------5-------7-----------7-----------7-------|
E|----------------5-------------------------------7---------------|

G|----------------------------------------------------------------|
D|----------------------------------------------------------------|
A|--------------------------------------------------------7-------|
E|5-----------5---0---------------5-----------5---0-----------7---|

1:57

G|----------------------------------------------------------------|
D|----------------------------------------------------------------|
A|----------------------------------------------------------------|
E|5-----------5---0---------------5-----------5---0-------5---6---|

G|----------------------------------------------------------------|
D|----------------------------------------------------------------|
A|--------------------------------7-------------------------------|
E|7---------------2-------7-------------------0---0-------7-------|

G|----------------------------------------------------------------|
D|----------------------------------------------------------------|
A|----------------------------------------------------------------|
E|5-----------5---0---------------5-----------5---0-------5---7---|

G|----------------------------------------------------------------|
D|----------------------------------------------------------------|
A|7-----------7-------------------7-----------7-----------7-------|
E|----------------7-------------------------------7---------------|

2:11

G|----------------------------------------------------------------|
D|----------------------------------------------------------------|
A|4-----------4-------------------4-----------4-----------4-------|
E|----------------4-------------------------------4---------------|

G|----------------------------------------------------------------|
D|4-----------4-------------------4---------------4---------------|
A|----------------4---------------------------------------7-------|
E|----------------------------------------------------------------|

G|----------------------------------------------------------------|.
D|----------------------------------------------------------------|.
A|5-----------5-----------5-------7-----------7-----------7-------|.
E|----------------5-------------------------------7---------------|.
                                                                   . x2
G|----------------------------------------------------------------|.
D|----------------------------------------------------------------|.
A|----------------------------------------------------------------|.
E|5-----------5---0---------------5-----------5-----------5-------|.

G|----------------------------------------------------------------|
D|----------------------------------------------------------------|
A|5-----------5-----------5-------7-----------7-----------7-------|
E|----------------5-------------------------------7---------------|

G|--------------------------------|
D|--------------------------------|
A|--------------------------------|
E|5-------------------------------|

            
            
Suggest correction
Creating personal tab
Creating personal tab
You can edit any tab online and save it as your Personal.

You can edit, replace or remove any tab part or add personal notes – all changes will be seen only by you.

Personal tabs can be accessed anytime from any device, even offline.
Learn more »
Give kudos to tab author, rate the tab!
1 2 3 4 5
comments
print report bad tab
guest
You may want to rate the tab now too:
select rating
Wanna post a correction for this tab? Suggest correction