Oops, an error
Loading. Please wait.

Sleazy Love Song For The Shallow bass

by The Zou
97 views 1 this week
no commentswrite comment
1 2 3 4 5
3 more votes to show rating
add to favorites
×
Save as Personal and add changes to this tab that will be seen only by you. Learn more ›
×
You can save this tab as Personal to edit and correct it or add notes. All changes will be seen only by you. Learn more »
launch autoscroll
font size
0
reset
guitar tuner
edit
Autoscroll
slow
fast
+/-
esc
set tempo
stop
Artist:	        The Zou
Song:		Sleazy (Love Song for the Shallow)
Album:		The Zou

-Standard Tuning

Figure A(1)
G|---------------------------------|
D|---------------------------------|
A|-3----3----------0---0-------0-2-|
E|---------0-0--3--------3-1-3-----|
                                               
Figure A(2)
G|-----------------------------------|
D|-----------------------------------|
A|-3----2-3-2-----0----0---------0-2-|
E|-------------4----------3-1-3------|

Figure B
G|-----5------------2--------------------|
D|---5----0-1-2------2-------------------|
A|-3------------2-----2-1-0--0-------0-2-|
E|----------------0------------3-1-3-----|

Figure C(1)
G|-5------4----1---2-----0-----0--2—4-|
D|--------------------------3---------|
A|------------------------------------|
E|------------------------------------|

Figure C(2)
G|-5---4--5--4--1--2----2--0-----0--2--4-|
D|----------------------------3----------|
A|---------------------------------------|
E|---------------------------------------|

Figure D
G|-----------------------------------|
D|-----------------------------------|
A|-3--3----------0--0-----------0--2-|
E|--------0--0------------1--3-------|


*Repeat each figure over and over, until you switch figures.

~~~~~~~~~~~~~~~~~~~~~~~~~~~~~~~~~~~~~~~~~

Acoustic Intro: 
NO BASS

Intro 2:	Fig. A

(STOP)
I’ve been looking to find myself
Can you help me out tonight
I’ve been looking to know me better
And what better time than right now
Tonight, tonight, tonight

Fig. A

Only looking to make things whole
Discover that stunt that stole your style
The world is moving, proved untrue
And I’m so bitter

Sleazy, and you know, that I know
You’re the only one, the only one
That can please me, and you know
That I’m no better

Fig. D

Friday’s gonna be the night
To start my life at tight  (STOP)

Fig. A

I’m platinum y’all, I’m crystal clear
And I smell so nice
The air closes in, the walls are thin
The room is spinning
Who’s stylin’ now, I’m up somehow
And I’m still living


Sleazy, and you know, that I know
You’re the only one, the only one
That can please me, and you know
That I’m no better
Sleazy, and you know, that I know
You’re the only one, the only one
That can please me, and you know
That I’m no better

Solo:	Fig. B

Fig. A or C

Sleazy, and you know, that I know
You’re the only one, the only one
That can please me, and you know
That I’m no better

(STOP)
Only looking to find myself
Can you help me out to-night
I’ve been looking to know me better
What better time than right now
Tonight, tonight, tonight

Repeat ACOUSTIC INTRO

Fig. A or C

Sleazy, and you know, that I know
You’re the only one, the only one
That can please me, and you know
That I’m no better
Sleazy, and you know, that I know
You’re the only one, the only one
That can please me, and you know
That I’m no better

END

            
            
Suggest correction
Creating personal tab
Creating personal tab
You can edit any tab online and save it as your Personal.

You can edit, replace or remove any tab part or add personal notes – all changes will be seen only by you.

Personal tabs can be accessed anytime from any device, even offline.
Learn more »
Give kudos to tab author, rate the tab!
1 2 3 4 5
comments
print report bad tab
guest
Wanna post a correction for this tab? Suggest correction