Oops, an error
Loading. Please wait.

Bad Moon Rising tab

3,886 views 18 this week
1 commentread comment
1 2 3 4 5
x 4
add to favorites
×
Save as Personal and add changes to this tab that will be seen only by you. Learn more ›
×
You can save this tab as Personal to edit and correct it or add notes. All changes will be seen only by you. Learn more »
launch autoscroll
font size
0
reset
how to read this tab
guitar tuner
edit
Autoscroll
slow
fast
+/-
esc
set tempo
stop
Taken from "Loft Music" Album. A greatly simplified version of this classic CCR song but 
great none the less!!!

Standard Tuning

D: xx0232
A: x02220
G: 320033

INTRO & VERSE
=============

    D           A   G    D
e|--------2--------------------2----------2----------------|
B|------3---3-----2---3------3---3------3---3--------------|
G|----2------2-------------2------2---2------2-------------|
D|--0--------------------0----------0----------------------|
A|--------------0------------------------------------------|
E|------------------3--------------------------------------|

CHORUS
======

    G                      D                      A           G
e|--------3----------3-----------2----------2-----------0-----------3----|
B|------3---3------3---3-------3---3------3---3-------2---2-------3---3--|
G|----0------0---0------0----2------2---2------2----2------2----0------0-|
D|-------------------------0----------0----------------------------------|
A|------------------------------------------------0----------------------|
E|--3----------3----------------------------------------------3----------|

    D
e|--------2----------2---------------------------------------------------|
B|------3---3------3---3-------------------------------------------------|
G|----2------2---2------2------------------------------------------------|
D|--0----------0---------------------------------------------------------|
A|-----------------------------------------------------------------------|
E|-----------------------------------------------------------------------|


LYRICS
======

I see the bad moon rising.
I see trouble on the way.
I see earthquakes and lightnin'.
I see bad times today.

Don't go around tonight
Well it's bound to take your life
There's a bad moon on the rise.

I hear hurricanes a blowing.
I know the end is coming soon.
I fear rivers over flowing.
I hear the voice of rage and ruin.

Don't go around tonight
Well it's bound to take your life
There's a bad moon on the rise.
All right!

Hope you got your things together.
Hope you are quite prepared to die.
Looks like we're in for nasty weather.
One eye is taken for an eye.

Don't go around tonight,
Well, it's bound to take your life,
There's a bad moon on the rise.

Don't go around tonight,
Well, it's bound to take your life,
There's a bad moon on the rise.

            
            
Suggest correction
Creating personal tab
Creating personal tab
You can edit any tab online and save it as your Personal.

You can edit, replace or remove any tab part or add personal notes – all changes will be seen only by you.

Personal tabs can be accessed anytime from any device, even offline.
Learn more »
comments
print report bad tab
1 comment total.
0 reply
jonas_blind_hen 47 Sep 01, 2017 04:08 PM

Very basic, but ok - apart from the last D chord in the verse which should end with 2 - 3 - 2, not 2- 2 -3.

On the "Loft" album, however, Thea plays it in C.

guest
You may want to rate the tab now too:
select rating
Wanna post a correction for this tab? Suggest correction