Oops, an error
Loading. Please wait.

Uragiri No Yuuyake tab

version 1
version 1

Whole song

Interactive

23,231 views 30 this week
no commentswrite comment
1 2 3 4 5
x 5
add to favorites
×
Save as Personal and add changes to this tab that will be seen only by you. Learn more ›
×
You can save this tab as Personal to edit and correct it or add notes. All changes will be seen only by you. Learn more »
launch autoscroll
font size
0
reset
how to read this tab
guitar tuner
edit
Autoscroll
slow
fast
+/-
esc
set tempo
stop
Author
Difficulty
intermediate
Tuning: E standard

[Intro]
       G              A
e|---------------------------|
B|---------------------------|
G|---------------------------|
D|---(7)7/9------------------|
A|---(5)5/7---------(5)5/7---|
E|------------------(3)3/5---|

(now w/distortion)
     a           e           C           D
e|---------------------------------------------2-----|
B|---------1-----------0-----------1--------------3--|
G|------------2-----------0-----------0-----2--------|
D|------2-----------2-----------2--------0-----------|
A|---0-----------2-----------3-----------------------|
E|---------------------------------------------------|

     e           F#          G           b
e|---------------------------------------------------|
B|---------0-----------0-----------0-----------3-----|
G|------------0-----------0-----------0-----------4--|
D|------2-----------0-----------0-----------4--------|
A|---2-----------------------------------2-----------|
E|---------------2-----------3-----------------------|

     a           e           C           D
e|---------------------------------------------2-----|
B|---------1-----------0-----------1--------------3--|
G|------------2-----------0-----------0-----2--------|
D|------2-----------2-----------2--------0-----------|
A|---0-----------2-----------3-----------------------|
E|---------------------------------------------------|

e|---------------------------------|
B|---4--4--4--4--4--4--4--4--4--4--|
G|---4--4--4--4--4--4--4--4--4--4--|
D|---4--4--4--4--4--4--4--4--4--4--|
A|---2--2--2--2--2--2--2--2--2--2--|
E|---------------------------------|

[Chorus]
e|---7--7--7--7--7--7--7--7--7--7--7--7--7--7--7--7--7--7--7--7--7--7--7---|
B|---6--7--7--6--6--6--7--6--7--6--7--6--6--7--7--6--6--6--7--6--7--6--7---|
G|---6--6--6--6--6--6--6--6--6--6--6--6--6--6--6--6--6--6--6--6--6--6--6---|
D|---7--7--7--7--7--7--7--7--7--7--7--7--7--7--7--7--7--7--7--7--7--7--7---|
A|---6--6--6--6--6--6--6--6--6--6--6--6--6--6--6--6--6--6--6--6--6--6--6---|
E|---6--6--6--6--6--6--6--6--6--6--6--6--6--6--6--6--6--6--6--6--6--6--6---|

e|-------------------------------------------------------------------------|
B|---3--3--3--3--3--3---1--1--1--1--1--1-----------------------------------|
G|---4--4--4--4--4--4---2--2--2--2--2--2-----------------------------------|
D|---5--5--5--5--5--5---2--2--2--2--2--2----4--4--4--4--4--4--4--4--4--4---|
A|---5--5--5--5--5--5---0--0--0--0--0--0----2--2--2--2--2--2--2--2--2--2---|
E|-------------------------------------------------------------------------|

e|-------------------------------------------------------|
B|-------------------------------------------------------|
G|-------------------------------------------------------|
D|---9--9--9--9--11-11-11-11--12--12--12--12--4--4--4--4-| (x2)
A|---7--7--7--7--9--9--9--9---10--10--10--10--2--2--2--2-|
E|-------------------------------------------------------|

e|-------------------------------------------------------|
B|-------------------------------------------------------|
G|-------------------------------------------------------|
D|---5--5--5--5--7--7--7--7--9--9--9--9--11-11-11-11-----|
A|---3--3--3--3--5--5--5--5--7--7--7--7--9--9--9--9------|
E|-------------------------------------------------------|

e|----------------------------------------------------|
B|----------------------------------------------------|
G|---5--5--5--5--5--5--5--5---------------------------|
D|---5--5--5--5--5--5--5--5--5--5--5--5--5--5--5--5---|
A|---3--3--3--3--3--3--3--3--5--5--5--5--5--5--5--5---|
E|---------------------------3--3--3--3--3--3--3--3---|

e|----------------------------------------------------|
B|----------------------------------------------------|
G|---3--3--3--3--3--3--3--3---------------------------|
D|---3--3--3--3--3--3--3--3--3--3--3--3--3--3--3--3---|
A|---1--1--1--1--1--1--1--1--3--3--3--3--3--3--3--3---|
E|---------------------------1--1--1--1--1--1--1--1---|

e|----------------------------------------------------|
B|----------------------------------------------------|
G|---5--5--5--5--5--5--5--5---------------------------|
D|---5--5--5--5--5--5--5--5--5--5--5--5--5--5--5--5---|
A|---3--3--3--3--3--3--3--3--5--5--5--5--5--5--5--5---|
E|---------------------------3--3--3--3--3--3--3--3---|

e|----------------------------------------------------|
B|----------------------------------------------------|
G|---4--4--4--4--4--4--4--4--4--4---------------------|
D|---4--4--4--4--4--4--4--4--4--4---------------------|
A|---2--2--2--2--2--2--2--2--2--2---------------------|
E|----------------------------------------------------|

[Solo]
e|----------------------------------------------------------|
B|---2~~(0)-2~~(0)-2~~-0-2-3-4-7-7-4-4-2-2--2~~-4-2-0-------|
G|----------------------------------------------------------|
D|----------------------------------------------------------|
A|----------------------------------------------------------|
E|----------------------------------------------------3(3)--|

e|-------------------------------12-----12-12----12-12----------12----12--|
B|--------------10^-10--10-12-12-12-----12-12----12-12-------10----10-----|
G|---7--9-9-9^9--9^--9---------------14~----- 14~------14~-9--------------|
D|------------------------------------------------------------------------|
A|------------------------------------------------------------------------|
E|------------------------------------------------------------------------|

e|---18^18^-18-16p18p15----15-16-16/18--18^-18^---|
B|----------------------16------------------------|
G|------------------------------------------------|
D|------------------------------------------------|
A|------------------------------------------------|
E|------------------------------------------------|

e|---16h18h16h18h16h18--16-14h16h14-------------------|
B|----------------------------------16-14-12----12----|
G|-------------------------------------------13----11-|
D|----------------------------------------------------|
A|----------------------------------------------------|
E|----------------------------------------------------|

e|------12-12--------------------------------12-12-------|
B|------12-12-10h12h10h12h10-----------------12-12-------|
G|---14----------------------12~----12-14-14-------14~---|
D|-------------------------------14----------------------|
A|-------------------------------------------------------|
E|-------------------------------------------------------|

e|----------------------------------------------|
B|----------------------------------------------|
G|------11---11---11----11////------------------|
D|----9----9----9----9---9////------------------|
A|----------------------------------------------|
E|----------------------------------------------|

[Chorus]
e|---7--7--7--7--7--7--7--7--7--7--7--7--7--7--7--7--7--7--7--7--7--7--7---|
B|---6--7--7--6--6--6--7--6--7--6--7--6--6--7--7--6--6--6--7--6--7--6--7---|
G|---6--6--6--6--6--6--6--6--6--6--6--6--6--6--6--6--6--6--6--6--6--6--6---|
D|---7--7--7--7--7--7--7--7--7--7--7--7--7--7--7--7--7--7--7--7--7--7--7---|
A|---6--6--6--6--6--6--6--6--6--6--6--6--6--6--6--6--6--6--6--6--6--6--6---|
E|---6--6--6--6--6--6--6--6--6--6--6--6--6--6--6--6--6--6--6--6--6--6--6---|

e|-------------------------------------------------------------------------|
B|---3--3--3--3--3--3---1--1--1--1--1--1-----------------------------------|
G|---4--4--4--4--4--4---2--2--2--2--2--2-----------------------------------|
D|---5--5--5--5--5--5---2--2--2--2--2--2----4--4--4--4--4--4--4--4--4--4---|
A|---5--5--5--5--5--5---0--0--0--0--0--0----2--2--2--2--2--2--2--2--2--2---|
E|-------------------------------------------------------------------------|

e|-------------------------------------------------------|
B|-------------------------------------------------------|
G|-------------------------------------------------------|
D|---9--9--9--9--11-11-11-11--12--12--12--12--4--4--4--4-| (x2)
A|---7--7--7--7--9--9--9--9---10--10--10--10--2--2--2--2-|
E|-------------------------------------------------------|

e|-------------------------------------------------------|
B|-------------------------------------------------------|
G|-------------------------------------------------------|
D|---5--5--5--5--7--7--7--7--9--9--9--9--11-11-11-11-----|
A|---3--3--3--3--5--5--5--5--7--7--7--7--9--9--9--9------|
E|-------------------------------------------------------|

e|----------------------------------------------------|
B|----------------------------------------------------|
G|---5--5--5--5--5--5--5--5---------------------------|
D|---5--5--5--5--5--5--5--5--5--5--5--5--5--5--5--5---|
A|---3--3--3--3--3--3--3--3--5--5--5--5--5--5--5--5---|
E|---------------------------3--3--3--3--3--3--3--3---|

e|----------------------------------------------------|
B|----------------------------------------------------|
G|---3--3--3--3--3--3--3--3---------------------------|
D|---3--3--3--3--3--3--3--3--3--3--3--3--3--3--3--3---|
A|---1--1--1--1--1--1--1--1--3--3--3--3--3--3--3--3---|
E|---------------------------1--1--1--1--1--1--1--1---|

e|----------------------------------------------------|
B|----------------------------------------------------|
G|---5--5--5--5--5--5--5--5---------------------------|
D|---5--5--5--5--5--5--5--5--5--5--5--5--5--5--5--5---|
A|---3--3--3--3--3--3--3--3--5--5--5--5--5--5--5--5---|
E|---------------------------3--3--3--3--3--3--3--3---|

e|----------------------------------------------------|
B|----------------------------------------------------|
G|---4--4--4--4--4--4--4--4--4--4---------------------|
D|---4--4--4--4--4--4--4--4--4--4---------------------|
A|---2--2--2--2--2--2--2--2--2--2---------------------|
E|----------------------------------------------------|



************************************

| (n)  Ghost note
| /    Slide up
| ~    Vibrato
| p    Pull-off
| h    Hammer-on
|      
| )    
| ^    
| ~~(  

************************************
Suggest correction
Creating personal tab
Creating personal tab
You can edit any tab online and save it as your Personal.

You can edit, replace or remove any tab part or add personal notes – all changes will be seen only by you.

Personal tabs can be accessed anytime from any device, even offline.
Learn more »
comments
print report bad tab
guest
You may want to rate the tab now too:
select rating
Wanna post a correction for this tab? Suggest correction