Oops, an error
Loading. Please wait.

And When He Falleth guitar pro

version 1
version 1

Whole song

Interactive

2,818 views 1 this week
4 commentsread comments
1 2 3 4 5
x 3
add to favorites
guitar tuner
Autoscroll
slow
fast
+/-
esc
set tempo
stop
File Format
Filesize
Instruments
.gp3
41 Kb
basses, percussions, keyboards #2
"And When He Falleth"
demo version
Play now

or get full version for Free

×
Get full version now!
Learn and play this song
in Tab Pro
Try for free

or get $10 off Welcome Bonus

Get welcome bonus
Get access to Tab Pro version of “And When He Falleth”!
Tab Pro is a premium guitar tab service, available on PC, Mac, iOS and Android
TRY FOR FREE
Your download will start in 7 seconds
×
Like this song? We have more! Follow us on Facebook for daily tips, lessons and other guitar-related content.
To download “And When He Falleth” Guitar Pro tab click button below
Please note that you must have Guitar Pro software installed on your
computer in order to view this file.
Suggest correction
Give kudos to tab author, rate the tab!
1 2 3 4 5
comments
report bad tab
4 comments total. Showing first comments.
0 reply
J450N 233 Oct 05, 2007 03:28 AM

Nice. But with one question;
Why play...
|---------------
|---------------
|---------------
|--1-0---2-2-2-2
|3-----4-0-0-0-0
|1-4-3-6--------
... in the verse, when it can be played an easier way, like this...
|---------------
|---------------
|---------------
|--------2-2-2-2
|3-6-5-4-0-0-0-0
|1-4-3-6--------
?

0 reply
J450N 233 Oct 05, 2007 03:33 AM

Oh, and also in the verse
|---------------
|---------------
|0-0-0-0-0-0-0-0
|---------------
|3-3-3-3-3-3-3-3
|---------------
can be played
|---------------
|---------------
|---------------
|5-5-5-5-5-5-5-5
|3-3-3-3-3-3-3-3
|---------------

0 reply
torilion 30 Feb 21, 2009 12:58 AM

Piano intro is not correct at all unfortunately

guest