Oops, an error
Loading. Please wait.

Black Mirror Bass Tab

97 views 1 this week
no commentswrite comment
1 2 3 4 5
please rate
add to favorites
launch autoscroll
font size
0
reset
guitar tuner
Autoscroll
slow
fast
+/-
esc
set tempo
stop
Help us to improve Ultimate-Guitar.com Take our survey!
×
Author
Artist: Theatres des Vampires
Song: Black Mirror
Album: Pleasure And Pain
Year: 2005
Tabbed by: Laza
                  
G |-----------------------| x2
D |-3--------2------0-----|
A |---3-2-3----3-2----3-2-|
E |-----------------------|

G |---------------------------------------------------------------------| x2
D |-3333333333333333------------------2222222222222222-0000000000000000-|
A |------------------3333333333333333-----------------------------------|
E |---------------------------------------------------------------------|

G |-------| x2
D |-------|
A |-0-3---|
E |-----0-|

G |-----------------------------------------------|
D |-----------------------------------------------|
A |-----------------------------------------------|
E |-1-1--1-1--1--1-1--1-1--1--3-3-3-3--3--4-4-4-4-|

G |-------| x2
D |-------|
A |-0-3---|
E |-----0-|

G |----------------------------------1--2-|
D |-------------------------0--2--3-------|
A |-0----0----0----0--2--3----------------|
E |---------------------------------------|

G |---------------------| x2
D |-3-2--------0--------|
A |-----0-2-3----3-0-2-3|
E |---------------------|

G |------------------------------------------------| x2
D |------------------------------------------------|
A |-0--0--0--0-------------------------------------|
E |-------------0--0--0--0--1--1--1--1--0--0--4--4-|

G |--------|   |---|
D |--------|   |-3-|
A |-0----0-|   |---|
E |--------|   |---|

G |-----------------------------------2222222222222222-0000000000000000-| x2
D |-0000000000000000-3333333333333333-----------------------------------|
A |---------------------------------------------------------------------|
E |---------------------------------------------------------------------|

G |-------| x2
D |-------|
A |-0-3---|
E |-----0-|

G |-----------------------------------------------|
D |-----------------------------------------------|
A |-----------------------------------------------|
E |-1-1--1-1--1--1-1--1-1--1--3-3-3-3--3--4-4-4-4-|

G |-------| x2
D |-------|
A |-0-3---|
E |-----0-|

G |---|
D |---|
A |-0-|
E |---|
Suggest correction
Give kudos to tab author, rate the tab!
1 2 3 4 5
comments
print report bad tab
guest
You may want to rate the tab now too:
select rating
Wanna post a correction for this tab? Suggest correction