Oops, an error
Loading. Please wait.

Luciferia Tab

1,146 views 1 this week
no commentswrite comment
1 2 3 4 5
please rate
add to favorites
launch autoscroll
font size
0
reset
how to read this tab
guitar tuner
Tab Pro tools
  • play this tab
  • loop segment
  • change instrument
  • show fretboard
  • metronome
×
Best way to learn
"Luciferia"
Autoscroll
slow
fast
+/-
esc
set tempo
stop
Contributor
Difficulty
novice
This is my first tab... Hope you like it

Intro:

e|----------------------------------------------------------|
B|--------------------------------------------8-------------|
G|-------------------------9-10-9h10p9-7-9-10---10-9-10-----|
D|--7--10--9--7--7s10~~---------------------------------7---|
A|----------------------------------------------------------|
E|----------------------------------------------------------|

e|-----------------------------------------------------------|
B|--------------------------------------------8---------8s10-|
G|-------------------------9-10-9h10p9-7-9-10---10-9-10------|
D|--7--10--9--7--7s10~~--------------------------------------|
A|-----------------------------------------------------------|
E|-----------------------------------------------------------|

Verse:

Guitar 1:

e|----------------------------|
B|----------------------------|
G|----------------------------|
D|-------9-----9-----10----10-|
A|-----7-----7-----7-----7----|
E|---5-----5-----5-----5------|
PM   . .   . .   . .   . .

e|---------------------------------|
B|---------------------------------|
G|-------7-----7-------------------|
D|-----5-----5-------5-----5-----5-|
A|---5-----5-------5-----5-----5---|
E|---------------3-----3-----3-----|
PM   . .   . .   . .   . .   . .

Guitar 2:

e|---------------------------------------|
B|---------8-8---------------------------|
G|-----9-9-----7-7-10-10-------9-9-------|
D|-7-7-------------------10-10-----9-9---|  repeat..
A|---------------------------------------|
E|---------------------------------------|
PM . .

Pre chorus:

e|------------------------|
B|------------------------|
G|--10-10-------9-9-------|
D|--------10-10-----9-9---|
A|------------------------|
E|------------------------|

Repeat and fade out.. or simply use some delay.

Chorus:

e|-------------------------------|
B|-------------------------------|
G|-------------------------------|
D|--7----------------------------|
A|--7-------7-7--7--7s8-7--------|
E|--5-------5-5--5--------8------|
PM          . .  .  (heavy palm mute...)

e|-------------------------------|
B|-------------------------------|
G|-------------------------------|
D|--5---------------5------------|
A|--5-------5-5--5--5------------|
E|--3-------3-3--3--3------------|
PM          . .  .  

e|-------------------------------|
B|-------------------------------|
G|-------------------------------|
D|--3---------------3------------|
A|--3-------3-3--3--3------------|
E|--1-------1-1--1--1------------|
PM          . .  .  

e|-------------------------------|
B|-------------------------------|
G|-------------------------------|
D|--5---------------5------------|
A|--5-------5-5--5--5------------|
E|--3-------3-3--3--3------------|
PM          . .  .  

Play Verse
Play Pre-Chorus
Play Chorus

Bridge:

e|---------------------------------------|
B|---------------------------------------|
G|---------------------------------------|
D|---------------------------------------|
A|---------------------------------------|
E|--5----7-8-7~---8-10-8~----10-12-10~---|

e|-----------------------------------------------|
B|-----------------------------------------------|
G|-----------------------------------------------|
D|-----------------------------------------------|
A|-------------------------------10--------------|
E|-12-13-12~---12-13-12-10-12-13----13-12-13-8---|

e|--------------------------|
B|--------------------------|
G|--------------------------|
D|--------------------------|  Don't play this bar on last repeat.
A|---------------7----------|
E|-8-10-8-7-8-10---10-8-10--|

Chorus Melody:

e|--------------------------------------|
B|--------------------------------------|
G|--9--7------------------------------7-|
D|--------10--9--10------9------10------|

Luciferiaaaaaaaaa.....

Play chorus
Play chorus melody
Play chorus

ENJOY
comments
We did not receive enough feedback on this tab! Please rate:
print report bad tab
1 2 3 4 5
I want to post or [tab]
guest
You may want to rate the tab now too:
select rating
Please do not post tabs as comments. Select "correction" instead!