Oops, an error
Loading. Please wait.

Rosa Mistero Bass Tab

90 views 1 this week
no commentswrite comment
1 2 3 4 5
please rate
add to favorites
launch autoscroll
font size
0
reset
guitar tuner
Autoscroll
slow
fast
+/-
esc
set tempo
stop
Help us to improve Ultimate-Guitar.com Take our survey!
×
Author
Artist: Theatres des Vampires
Song: Rosa Mistero
Album: Pleasure And Pain
Year: 2005
Tabbed by: Laza
                  
G |--------------------------|
D |----------------------2---|
A |-----------2--0-0-0-0---0-|
E |-0-0-0-0-3----------------|

G |--------------------------------------------------------| x4
D |--------------------------------------------------------|
A |------------------------------------------2---------7---|
E |-5-5-5-5--5-5--5-5-5-5-5-7-5-3--0-0-0-0-3---5-5-5-5---5-|

G |----------------------------| x2
D |----------------------------|
A |--------------------------2-|
E |-5-5--5-5-5-7-5-3--0-0--0---|

G |------------------------------------------------------| x2
D |------------------------------------------------------|
A |-------------------------------------------2-2--2-2-2-|
E |-5-5--5-5-5--5-5--5-5-7-5-3--0-0--0-0-0--0------------|

G |------------| x8
D |------------|
A |------------|
E |-0--0--0--0-|

G |-----------------------------------------------------------| x4
D |-----------------------------------------------------------|
A |------------------------------3-3--3--3-3-3--5-5--5--5-5-5-|
E |-0-0--0--0-0-3--0-0--0--0-0-3------------------------------|

G |----------------------------| x2
D |----------------------------|
A |--------------------------2-|
E |-5-5--5-5-5-7-5-3--0-0--0---|

G |------------------------------------------------------| x4
D |------------------------------------------------------|
A |-------------------------------------------2-2--2-2-2-|
E |-5-5--5-5-5--5-5--5-5-7-5-3--0-0--0-0-0--0------------|

G |------------| x8
D |------------|
A |------------|
E |-0--0--0--0-|

G |-----------------------------------------------------------| x4
D |-----------------------------------------------------------|
A |------------------------------3-3--3--3-3-3--5-5--5--5-5-5-|
E |-0-0--0--0-0-3--0-0--0--0-0-3------------------------------|

G |----------------------------| x2
D |----------------------------|
A |--------------------------2-|
E |-5-5--5-5-5-7-5-3--0-0--0---|

G |------------------------------------------------------| x4
D |------------------------------------------------------|
A |-------------------------------------------2-2--2-2-2-|
E |-5-5--5-5-5--5-5--5-5-7-5-3--0-0--0-0-0--0------------|

G |---|
D |---|
A |---|
E |-0-|
Suggest correction
Give kudos to tab author, rate the tab!
1 2 3 4 5
comments
print report bad tab
guest
You may want to rate the tab now too:
select rating
Please do not post tabs as comments. Select "correction" instead!