Oops, an error
Loading. Please wait.

Solitude Bass Tab

63 views 1 this week
no commentswrite comment
1 2 3 4 5
3 more votes to show rating
add to favorites
launch autoscroll
font size
0
reset
guitar tuner
Autoscroll
slow
fast
+/-
esc
set tempo
stop
Help us to improve Ultimate-Guitar.com Take our survey!
×
Author
Artist: Theatres des Vampires
Song: Solitude
Album: Pleasure And Pain
Year: 2005
Tabbed by: Laza
                  
G |-------------| x5
D |-------------|
A |-------2-2-2-|
E |-3-3-0-------|

G |-------| |--------| x4
D |-------| |--------|
A |-------| |--------| 
E |-3-3-0-| |-2-2-2-2|

G |-----------------------------------------------------| x3
D |-----------------------------------------------------|
A |-------------------------2-2-2-2-2-2-2-2-2-0-2-5-2-0-|
E |-3-3-3-3-3-3-0-0-0-0-0-0-----------------------------|

G |-----------------|
D |-----------------|
A |-----------------|
E |-3-3-0-2-2-2-0-2-|

G |---------------------------------| x2
D |---------------------------------|
A |-----------------2-2-2-2-0-0-0-0-|
E |-0-0-0-0-3-3-3-3-----------------|

G |-------------------------------------------------| 
D |-------------------------------------------------|
A |-------------------------2-2-2-2-2-2-0-0-0-0-0-0-|
E |-0-0-0-0-0-0-3-3-3-3-3-3-------------------------|

G |-----------------------------------------------------|
D |-----------------------------------------------------|
A |-------------------------2-2-2-2-2-2-0-0-0-0-0-0-0-0-|
E |-0-0-0-0-0-0-3-3-3-3-3-3-----------------------------|


G |---------| x4
D |---------|
A |---------|
E |-0-2-3-5-|

G |-----------------------------------------------------| x3
D |-----------------------------------------------------|
A |-------------------------2-2-2-2-2-2-2-2-2-0-2-5-2-0-|
E |-3-3-3-3-3-3-0-0-0-0-0-0-----------------------------|

G |-----------------|
D |-----------------|
A |-----------------|
E |-3-3-0-2-2-2-0-2-|

G |-------------| x2
D |-------------|
A |-------2-2-2-|
E |-3-3-0-------|

G |-----------------------------------------------------| x3
D |-----------------------------------------------------|
A |-------------------------2-2-2-2-2-2-2-2-2-0-2-5-2-0-|
E |-3-3-3-3-3-3-0-0-0-0-0-0-----------------------------|

G |-----------------|
D |-----------------|
A |-----------------|
E |-3-3-0-2-2-2-0-2-|
Suggest correction
Give kudos to tab author, rate the tab!
1 2 3 4 5
comments
print report bad tab
guest
You may want to rate the tab now too:
select rating
Wanna post a correction for this tab? Suggest correction