Oops, an error
Loading. Please wait.

The Dark Domain Tab

310 views 1 this week
no commentswrite comment
1 2 3 4 5
3 more votes to show rating
add to favorites
launch autoscroll
font size
0
reset
how to read this tab
guitar tuner
Autoscroll
slow
fast
+/-
esc
set tempo
stop
Help us to improve Ultimate-Guitar.com Take our survey!
×
Author
Difficulty
novice
Artist: 	Theatres des Vampires 
		http://www.theatres-des-vampires.com/ 
Song: 		The Dark Domain
Album:		Vampyrisme
Label:		Beyond Production
		http://www.beyondprod.com/
Tabbed by:	James Wood
Contact:	gleamnite@hotmail.com	


e | ----------------------------------------------  ||
B | ----------------------------------------------  ||
G | ----------------------------------------------  ||
D | --------------2-2-------3-3--------------\\\\-  ||
A | --------------2-2-------3-3--------------\PS\-  ||
E | --------------0-0-------1-1--------------\\\\-  ||

e | ----------------------------------------------  ||
B | ---------------------------------------------- o||
G | ---------------------------------------------- *||
D | -2-2-2-2-2-2-2-2-3-3-3-3---------------------- 4||
A | -2-2-2-2-2-2-2-2-3-3-3-3---------------------- o||
E | -0-0-0-0-0-0-0-0-1-1-1-1-1-3-1-0-1------------  ||
       * * * * * *    * * *
e | ----------------------------------------------  ||
B | ---------------------------------------------- o||
G | ---4-2-----------2-5-4-2---------------------- *||
D | -------5-4-2-4-5---------5-4-2-4-5------------ 4||
A | ---------------------------------------------- o||
E | ----------------------------------------------  ||

e | ----------------------------------------------  ||
B | ------------------------------3--------------- o||
G | -4--4-4-2--4--4-4-2--5--5-5-4---5-4-2-5-4-2--- *||
D | --------------------------------------------5- 8|| ^b5... on last
A | ---------------------------------------------- o||
E | ----------------------------------------------  ||

e | ---------------|------------------------------  ||
B | ---------------|------------------------------ o||
G | -----5-------5-|--------------5--5-5--5-5----- *||
D | -2---5---2---5-|-2--2-2--2-2--5--3-3--3-5----- 4||
A | -2---3---2---3-|-2--2-2--2-2--3--3-3--3-3----- o||
E | -0-------0-----|-0--0-0--0-0------------------  ||
                        *    *       *    *
e | ----------------------------------------------  ||
B | ---------------------------------------------- o||
G | ---4-2-----------2-5-4-2---------------------- *||
D | -------5-4-2-4-5---------5-4-2-4-5------------ 8||
A | ---------------------------------------------- o||
E | ----------------------------------------------  ||

e | ----------------------------------------------  ||
B | ------------------------------3--------------- o||
G | -4--4-4-2--4--4-4-2--5--5-5-4---5-4-2-5-4-2--- *||
D | --------------------------------------------5- 4||
A | ---------------------------------------------- o||
E | ----------------------------------------------  ||

e | ----------------------------------------------  ||
B | ----------------------------------------------  ||
G | -----4-------------------4--------------------  ||
D | -2---4---5---4--5-4--2---4---5---4--5-4-------  ||
A | -2---2---5---4--5-4--2---2---5---4--5-4-------  ||
E | -0-------3---2--3-2--0-------3---2--3-2-------  ||
	Accoustic Accompaniment
e | ----------------------------------------------  ||
B | ----5---------5---------5-----(---5---)------- o|| (play the 1st )
G | -4---4-4---4---4-4---4---4-4--(4---4-4)------- *|| (and 3rd times)
D | ---------------------------------------------- 4||
A | ---------------------------------------------- o||
E | ----------------------------------------------  ||

e | ----------------------------------------------  ||
B | ---------------------------------------------- o||
G | ----------44444444---------------------------- *||
D | -22222222-44444444-55555555-4444-55-44-------- 2||
A | -22222222-22222222-55555555-4444-55-44-------- o||
E | -00000000----------33333333-2222-33-22--------  ||
      ******   ******   ******   **   *  *
e | ----------------------------------------------  ||
B | ---------------------------------------------- o||
G | ---------------------------------------------- *||
D | -2-2-2-2-2-2-2-2-3-3-3-3---------------------- 4||
A | -2-2-2-2-2-2-2-2-3-3-3-3---------------------- o||
E | -0-0-0-0-0-0-0-0-1-1-1-1-1-3-1-0-1------------  ||
       * * * * * *    * * *

e | ----------------------------------------------  ||
B | ---------------------------------------------- o|| Start Fade on 6
G | ---4-2-----------2-5-4-2---------------------- *||
D | -------5-4-2-4-5---------5-4-2-4-5------------ 7||
A | ---------------------------------------------- o||
E | ----------------------------------------------  ||
Suggest correction
Give kudos to tab author, rate the tab!
1 2 3 4 5
comments
print report bad tab
guest
You may want to rate the tab now too:
select rating
Wanna post a correction for this tab? Suggest correction