Oops, an error
Loading. Please wait.

Unity tab

version 2
version 2

Whole song

3,121 views 27 this week
no commentswrite comment
1 2 3 4 5
2 more votes to show rating
add to favorites
×
Save as Personal and add changes to this tab that will be seen only by you. Learn more ›
×
You can save this tab as Personal to edit and correct it or add notes. All changes will be seen only by you. Learn more »
launch autoscroll
font size
0
reset
how to read this tab
guitar tuner
edit
Autoscroll
slow
fast
+/-
esc
set tempo
stop
Author
Difficulty
Tab Unity by Martín Domenech
Cover de la canción: https://www.youtube.com/watch?v=fjDfARmW8nA
Cover song: https://www.youtube.com/watch?v=fjDfARmW8nA


[Intro]

e|-7----------------------------------------------------------|
B|----10---8--------------------------------------------------|
G|-------------9---7---9--------------------------------------| x2
D|------------------------------------------------------------|
A|------------------------------------------------------------|
E|------------------------------------------------------------|

e|-7----------------------------------------------------------|
B|----10---8--------------------------------------------------|
G|-------------9---7---9--12--14--16--14----------------------|
D|------------------------------------------------------------|
A|------------------------------------------------------------|
E|------------------------------------------------------------|

e|-7----------------------------------------------------------|
B|----10---8--------------------------------------------------|
G|-------------9---7---9--------------------------------------| x2
D|------------------------------------------------------------|
A|------------------------------------------------------------|
E|------------------------------------------------------------|

e|------------------------------7--10--7--12--15—17-------------|
B|----------------------7--10------------------------------------|
G|-------------9--7----------------------------------------------|
D|---------------------------------------------------------------|
A|---------------------------------------------------------------|
E|---------------------------------------------------------------|

e|-19--17-----------------------------------------------------|
B|--------20--17------17--------------------------------------|
G|----------------19------------------------------------------| x2
D|------------------------------------------------------------|
A|------------------------------------------------------------|
E|------------------------------------------------------------|

e|-19--17---------------------17--19--17----------------------|
B|--------20--17------17--20----------------------------------|
G|----------------19------------------------------------------|
D|------------------------------------------------------------|
A|------------------------------------------------------------|
E|------------------------------------------------------------|

e|-19--17-----------------------------------------------------|
B|--------20--17------17--------------------------------------|
G|----------------19------------------------------------------| x2
D|------------------------------------------------------------|
A|------------------------------------------------------------|
E|------------------------------------------------------------|

e|-------------19--17--17--19--17-----17/5--------------------|
B|-----17--20-------------------------------------------------|
G|-19---------------------------------------------------------|
D|------------------------------------------------------------|
A|------------------------------------------------------------|
E|------------------------------------------------------------|


[Chorus]

e|------------------------------------------------5/7-5-3----------|
B|--3/5-5-5-5-3h5-5-5h3-3h0-0---3/5—5—5-3--5--3--------------------|
G|-----------------------------------------------------------------|
D|-----------------------------------------------------------------|
A|-----------------------------------------------------------------|
E|-----------------------------------------------------------------|

e|-5/7-7-7-7-5h7-7-5-3----5/7-7-7-7-8-7-5---------------------|
B|------------------------------------------------------------|
G|------------------------------------------------------------|
D|------------------------------------------------------------|
A|------------------------------------------------------------|
E|------------------------------------------------------------|

e|------------------------------------------------5/7-5-3----------|
B|--3/5-5-5-5-3h5-5-5h3-3h0-0---3/5—5—5-3--5--3--------------------|
G|-----------------------------------------------------------------|
D|-----------------------------------------------------------------|
A|-----------------------------------------------------------------|
E|-----------------------------------------------------------------|

e|--5/7-7-7--3h5/7-7-7--3h5/7-7-7—7-8----------------------------|
B|---------------------------------------------------------------|
G|---------------------------------------------------------------|
D|---------------------------------------------------------------|
A|---------------------------------------------------------------|
E|---------------------------------------------------------------|

          Repetir 3 veces
          Repeat 3 times

          Luego, silenciar la guitarra en la parte cantada
          Then, silence the guitar in the part where she sings

          Volver al estribillo 
          Back to the chorus 


[Chorus]

e|------------------------------------------------5/7-5-3----------|
B|--3/5-5-5-5-3h5-5-5h3-3h0-0---3/5—5—5-3--5--3----------------|
G|-----------------------------------------------------------------|
D|-----------------------------------------------------------------|
A|-----------------------------------------------------------------|
E|-----------------------------------------------------------------|

e|-5/7-7-7-7-5h7-7-5-3----5/7-7-7-7-8-7-5---------------------|
B|------------------------------------------------------------|
G|------------------------------------------------------------|
D|------------------------------------------------------------|
A|------------------------------------------------------------|
E|------------------------------------------------------------|

e|------------------------------------------------5/7-5-3----------|
B|--3/5-5-5-5-3h5-5-5h3-3h0-0---3/5—5—5-3--5--3----------------|
G|-----------------------------------------------------------------|
D|-----------------------------------------------------------------|
A|-----------------------------------------------------------------|
E|-----------------------------------------------------------------|

e|--5/7-7-7--3h5/7-7-7--3h5/7-7-7—7-8--------------------------|
B|---------------------------------------------------------------|
G|---------------------------------------------------------------|
D|---------------------------------------------------------------|
A|---------------------------------------------------------------|
E|---------------------------------------------------------------|


[Verse]

e|-7----------------------------------------------------------|
B|----10---8--------------------------------------------------|
G|-------------9---7---9--------------------------------------| x2
D|------------------------------------------------------------|
A|------------------------------------------------------------|
E|------------------------------------------------------------|

e|-7----------------------------------------------------------|
B|----10---8--------------------------------------------------|
G|-------------9---7---9--12--14--16--14----------------------|
D|------------------------------------------------------------|
A|------------------------------------------------------------|
E|------------------------------------------------------------|

e|-7----------------------------------------------------------|
B|----10---8--------------------------------------------------|
G|-------------9---7---9--------------------------------------| x2
D|------------------------------------------------------------|
A|------------------------------------------------------------|
E|------------------------------------------------------------|

e|------------------------------7--10--7--12--15—17------------|
B|----------------------7--10------------------------------------|
G|-------------9--7----------------------------------------------|
D|---------------------------------------------------------------|
A|---------------------------------------------------------------|
E|---------------------------------------------------------------|

e|-19--17-----------------------------------------------------|
B|--------20--17------17--------------------------------------|
G|----------------19------------------------------------------| x2
D|------------------------------------------------------------|
A|------------------------------------------------------------|
E|------------------------------------------------------------|

e|-19--17---------------------17--19--17----------------------|
B|--------20--17------17--20----------------------------------|
G|----------------19------------------------------------------|
D|------------------------------------------------------------|
A|------------------------------------------------------------|
E|------------------------------------------------------------|

e|-19--17-----------------------------------------------------|
B|--------20--17------17--------------------------------------|
G|----------------19------------------------------------------| x2
D|------------------------------------------------------------|
A|------------------------------------------------------------|
E|------------------------------------------------------------|

e|-------------19--17--17--19--17-----17/5--------------------|
B|-----17--20-------------------------------------------------|
G|-19---------------------------------------------------------|
D|------------------------------------------------------------|
A|------------------------------------------------------------|
E|------------------------------------------------------------|


[End]

e|------------------------------------------------5/7-5-3----------|
B|--3/5-5-5-5-3h5-5-5h3-3h0-0---3/5—5—5-3--5--3----------------|
G|-----------------------------------------------------------------|
D|-----------------------------------------------------------------|
A|-----------------------------------------------------------------|
E|-----------------------------------------------------------------|

e|-5/7-7-7-7-5h7-7-5-3----5/7-7-7-7-8-7-5---------------------|
B|------------------------------------------------------------|
G|------------------------------------------------------------|
D|------------------------------------------------------------|
A|------------------------------------------------------------|
E|------------------------------------------------------------|

e|------------------------------------------------5/7-5-3----------|
B|--3/5-5-5-5-3h5-5-5h3-3h0-0---3/5—5—5-3--5--3----------------|
G|-----------------------------------------------------------------|
D|-----------------------------------------------------------------|
A|-----------------------------------------------------------------|
E|-----------------------------------------------------------------|

e|--5/7-7-7--3h5/7-7-7--3h5/7-7-7—7-8--------------------------|
B|---------------------------------------------------------------|
G|---------------------------------------------------------------|
D|---------------------------------------------------------------|
A|---------------------------------------------------------------|
E|---------------------------------------------------------------|



************************************

| h  Hammer-on
| /  Slide up

************************************

            
            
Suggest correction
Creating personal tab
Creating personal tab
You can edit any tab online and save it as your Personal.

You can edit, replace or remove any tab part or add personal notes – all changes will be seen only by you.

Personal tabs can be accessed anytime from any device, even offline.
Learn more »
Give kudos to tab author, rate the tab!
1 2 3 4 5
comments
print report bad tab
guest
You may want to rate the tab now too:
select rating
Wanna post a correction for this tab? Suggest correction