Oops, an error
Loading. Please wait.

All For Myself Bass Tab

by Them
103 views 1 this week
no commentswrite comment
1 2 3 4 5
please rate
add to favorites
launch autoscroll
font size
0
reset
guitar tuner
Autoscroll
slow
fast
+/-
esc
set tempo
stop
Help us to improve Ultimate-Guitar.com Take our survey!
×
Author
All For Myself
Them
Written by Van Morrison; released as the B-side to "Here Comes The Night".

Intro:
G|------ ------ ------ ------|------ ------ ------ ------|
D|---------------------------|---------------------7---5-|
A|---------------------------|------------------7--------|
E|---------------------------|---------------------------|



G|------ ------ ------ ------|------ ------ ------ ------|
D|---------------------7---5-|---------------------7---5-|
A|7-------------5---7--------|7-------------5---7--------|
E|-----------7---------------|-----------7---------------|
                                                Why I  love

Verse:
G|------ ------ ------ ------|------ ------ ------ ------|
D|---------------------7---5-|---------------------7---5-|
A|7-------------5---7--------|7-------------5---7--------|
E|-----------7---------------|-----------7---------------|
  you,              love you, darling,        like I've ne-


G|------ ------ ------ ------|------ ------ ------ ------|
D|---------------------7---5-|---------------------7---5-|
A|7-------------5---7--------|7-------------5---7--------|
E|-----------7---------------|-----------7---------------|
  ver,   whoa,      loved   before.             I wanna get


G|------ ------ ------ ------|------ ------ ------ ------|
D|---------------------7---5-|---------------------7---5-|
A|7-------------5---7--------|7-------------5---7--------|
E|-----------7---------------|-----------7---------------|
  you, yeah, keep you            all for myself,


G|------ ------ ------ ------|------ ------ ------ ------|
D|---------------------7---5-|---------------------7---5-|
A|7-------------5---7--------|7-------------5---7--------|
E|-----------7---------------|-----------7---------------|
      nobody else,                well,


G|------ ------ ------ ------|
D|---------------------7---5-|
A|7-------------5---7--------|
E|-----------7---------------|
      sure enough.  I'm gonna take

Verse:
G|------ ------ ------ ------|------ ------ ------ ------|
D|---------------------7---5-|---------------------7---5-|
A|7-------------5---7--------|7-------------5---7--------|
E|-----------7---------------|-----------7---------------|
  you,              yeah, gonna take you,       I'm gonna lead
                       I'm

G|------ ------ ------ ------|------ ------ ------ ------|
D|---------------------7---5-|---------------------7---5-|
A|7-------------5---7--------|7-------------5---7--------|
E|-----------7---------------|-----------7---------------|
  you by            my     hand.                I'm gonna hug


G|------ ------ ------ ------|------ ------ ------ ------|
D|---------------------7---5-|---------------------7---5-|
A|7-------------5---7--------|7-------------5---7--------|
E|-----------7---------------|-----------7---------------|
  you,   you, baby, yeah,       show I'm man,
     squeeze                      you  a

G|------ ------ ------ ------|------ ------ ------ ------|
D|---------------------7---5-|---------------------7---5-|
A|7-------------5---7--------|7-------------5---7--------|
E|-----------7---------------|-----------7---------------|
     well,                      it's right, all right,
                                  all

G|------ ------ ------ ------|
D|---------------------7---5-|
A|7-------------5---7--------|
E|-----------7---------------|
    it's right, all right,
      all
Bridge:
G|------ ------ ------ ------|------ ------ ------ ------|
D|---------------------7-7-5-|---------------------7-7-5-|
A|7-7----7-7-7--7-7-7--------|7-7-7--7-7-7--7-7-7--------|
E|---------------------------|---------------------------|
    It's right, all right,      it's right, all right,
      all                         all

G|------ ------ ------ ------|------ ------ ------ ------|
D|---------------------7-7-5-|---------------------7-7-5-|
A|7-5----5-7-5--7-7-7--------|7-5----5-7-5--7-7-7--------|
E|----7----------------------|----7----------------------|
    it's right, all right,      get it,         yeah!
      all

G|------ ------ ------ ------|------ ------ ------ ------|
D|---------------------7-7-5-|---------------------7-7-5-|
A|7-5----5-7-5--7-7-7--------|7-7-7--5---5--7-7-7--------|
E|----7----------------------|---------7-----------------|



G|------ ------ ------ ------|------ ------ ------ ------|
D|---------------------7-7-5-|---------------------7-7-5-|
A|7-7-7--5---5--7-7-7--------|7-7-7--5---5--7-7-7--------|
E|---------7-----------------|---------7-----------------|



G|------ ------ ------ ------|------ ------ ------ ------|
D|---------------------7-7-5-|---------------------7---5-|
A|7-7-7--5---5--7-7-7--------|7-------------5------------|
E|---------7-----------------|-----------7---------------|



G|------ ------ ------ ------|
D|---------------------7---5-|
A|7-------------5---7--------|
E|-----------7---------------|
                    I wanna keep

Verse:
G|------ ------ ------ ------|------ ------ ------ ------|
D|---------------------7---5-|---------------------7---5-|
A|7-------------5---7--------|7-------------5---7--------|
E|-----------7---------------|-----------7---------------|
  you,              keep you, baby,             I wanna keep


G|------ ------ ------ ------|------ ------ ------ ------|
D|---------------------7---5-|---------------------7---5-|
A|7-------------5---7--------|7-------------5---7--------|
E|-----------7---------------|-----------7---------------|
  you, whoa,        satisfied.                  Walk through rain,


G|------ ------ ------ ------|------ ------ ------ ------|
D|---------------------7---5-|---------------------7---5-|
A|7-------------5---7--------|7-------------5---7--------|
E|-----------7---------------|-----------7---------------|
  hail snow, darling,           want you by my side,
    and

G|------ ------ ------ ------|------ ------ ------ ------|
D|---------------------7---5-|---------------------7---5-|
A|7-------------5---7--------|7-------------5---7--------|
E|-----------7---------------|-----------7---------------|
      well,                       sure enough,


G|------ ------ ------ ------|
D|---------------------7---5-|
A|7-------------5---7--------|
E|-----------7---------------|
    it's right, all right,
      all
Outro:
G|------ ------ ------ ------|------ ------ ------ ------|
D|---------------------7-7-5-|---------------------7-7-5-|
A|7-7-7--7-7-7--7-7-7--------|7-7-7--7-7-7--7-7-7--------|
E|---------------------------|---------------------------|
     All right, all right,      it's right, all right,
                                  all

G|------ ------ ------ ------|------ ------ ------ ------|
D|---------------------7-7-5-|---------------------7-7-5-|
A|7-5----5-7-5--7-7-7--------|7-7-7--5---5--7-7-7--------|
E|----7----------------------|---------7-----------------|
    it's right, all right,        sure enough, all right, all
      all

G|------ ------ ------ ------|------ ------ ------ ------|
D|---------------------7-7-5-|---------------------7-5---|
A|7-5----5-7-5--7-7-7--------|7-7-7--5---5--7-7-7------7-|
E|----7----------------------|---------7-----------------|
  right,               bring it on home,        oh, bring it on


G|------ ------ ------ ------|------ ------ ------ ------|
D|----------------5-6--7-5---|----------------5-6--7-5---|
A|5---5--5-7-5--7----------7-|5-7-5----5-7--7----------7-|
E|--7------------------------|-------7-------------------|
  home, yeah,   all right, all right,       all right, all


G|------ ------ ------ ------|------ ------ ------ ------|
D|-------5-6-7--5------------|-------5-6-7--5------------|
A/7-7-7-----------7-5--6-7-5-|7-7-7-----------7-5--6-7-5-|
E|---------------------------|---------------------------|
  right,        all right, all right,       all right, all...
Fade out...

Please e-mail me for any corrections, or write a comment.
Suggest correction
What's this?
You can suggest a correction to this tab. Community and Mods will review your correction and vote to approve or reject it.
comments
We did not receive enough feedback on this tab! Please rate:
print report bad tab
1 2 3 4 5
guest
You may want to rate the tab now too:
select rating
Please do not post tabs as comments. Select "correction" instead!