Oops, an error
Loading. Please wait.

Here Comes The Night bass

version 1
version 1

Whole song

Interactive

by Them
827 views 9 this week
no commentswrite comment
1 2 3 4 5
2 more votes to show rating
add to favorites
×
Save as Personal and add changes to this tab that will be seen only by you. Learn more ›
×
You can save this tab as Personal to edit and correct it or add notes. All changes will be seen only by you. Learn more »
launch autoscroll
font size
0
reset
guitar tuner
edit
Autoscroll
slow
fast
+/-
esc
set tempo
stop
Author
Here Comes The Night
Them
Written by Bert Berns; released as a single with "All For Myself" as the
B-side.

Intro:
G|------- ------- ------- -------|2------ ----2-- ------- 2---2--|
D|2-----------2-----------2---2--|--------2-----------2----------|
A|--------2-----------2----------|-------------------------------|
E|-------------------------------|-------------------------------|
                                                      Whoa, here it


G|------- ------- ------- -------|2------ ----2-- ------- 2---2--|
D|2-----------2-----------2---2--|--------2-----------2----------|
A|--------2-----------2----------|-------------------------------|
E|-------------------------------|-------------------------------|
  comes,                                          here comes the


G|------- ------- ------- -------|2------ ----2-- ------- 2---2--|
D|2-----------2-----------2---2--|--------2-----------2----------|
A|--------2-----------2----------|-------------------------------|
E|-------------------------------|-------------------------------|
  night,                                          Here comes the


G|------- ------- ------- -------|2------ ----2-- ------- 2---2--|
D|2-----------2-----------2---2--|--------2-----------2----------|
A|--------2-----------2----------|-------------------------------|
E|-------------------------------|-------------------------------|
  night,                                  whoa-o- a - oh,


G|------- ------- ------- -------|------- ------- ------- -------|
D|2-----------2-----------2---2--|-------------------------------|
A|--------2-----------2----------|2-----------2-------2-------2--|
E|-------------------------------|--------2---------------2------|
  yeah!

Verse:
G|------- ------- ------- -------|------- ------- ------- -------|
D|2-----------2-------2-------2--|-------------------------------|
A|--------2---------------2------|2-----------2-------2-------2--|
E|-------------------------------|--------2---------------2------|
  I could see, right at my window, walking down the street: my girl with an-


G|------- ------- ------- -------|------- ------- ------- -------|
D|2-----------2-----------2---2--|-------------------------------|
A|--------2-----------2----------|0-----------0---2-------2---2--|
E|-------------------------------|-------------------------------|
  other guy,                                                  His


G|------- ------- ------- -------|------- ------- ------- -------|
D|2-----------2-------2-------2--|-------------------------------|
A|--------2---------------2------|2-----------2-------2-------2--|
E|-------------------------------|--------2---------------2------|
  arms around her like used be    me,         whoa,   it makes me
                    it  to    with

G|------- ------- ------- -------|------- ------- ------- -------|
D|2-----------2-----------2---2--|-------------------------------|
A|--------2-----------2----------|2-----------2---2---2---2---2--|
E|-------------------------------|--------2----------------------|
  want to die.                    Yeah,   yeah,   yeah, well here it

Refrain:
G|------- ------- ------- -------|2------ ----2-- ------- 2---2--|
D|2-----------2-----------2---2--|--------2-----------2----------|
A|--------2-----------2----------|-------------------------------|
E|-------------------------------|-------------------------------|
  comes,                                          here comes the


G|------- ------- ------- -------|2------ ----2-- ------- 2---2--|
D|2-----------2-----------2---2--|--------2-----------2----------|
A|--------2-----------2----------|-------------------------------|
E|-------------------------------|-------------------------------|
  night,                                          Here comes the


G|------- ------- ------- -------|2------ ----2-- ------- 2---2--|
D|2-----------2-----------2---2--|--------2-----------2----------|
A|--------2-----------2----------|-------------------------------|
E|-------------------------------|-------------------------------|
  night,                                whoa- o - a - o - a - oh,


G|------- ------- ------- -------|------- ------- ------- -------|
D|2-----------2-----------2------|-------------------------------|
A|--------2-----------2----------|2-----------2-------2-------2--|
E|-------------------------------|--------2---------------2------|
  yeah.

Verse:
G|------- ------- ------- -------|------- ------- ------- -------|
D|2-----------2-------2-------2--|-------------------------------|
A|--------2---------------2------|2-----------2-------2-------2--|
E|-------------------------------|--------2---------------2------|
  There   go, it's    how look so good together,  wonder what is
        they      funny they

G|------- ------- ------- -------|------- ------- ------- -------|
D|2-----------2-----------2---2--|-------------------------------|
A|--------2-----------2----------|0-----------0---2-------2---2--|
E|-------------------------------|-------------------------------|
  wrong with me.


G|------- ------- ------- -------|------- ------- ------- -------|
D|2-----------2-------2-------2--|-------------------------------|
A|--------2---------------2------|2-----------2-------2-------2--|
E|-------------------------------|--------2---------------2------|
  Why can't I accept the fact     chosen him,         and simply
                              she's

G|------- ------- ------- -------|------- ------- ------- -------|
D|2-----------2-----------2---2--|-------------------------------|
A|--------2-----------2----------|2-----------2---2---2---2---2--|
E|-------------------------------|--------2----------------------|
  let them be?                    Who-a - o - a - oh, well, here it

Refrain:
G|------- ------- ------- -------|2------ ----2-- ------- 2---2--|
D|2-----------2-----------2---2--|--------2-----------2----------|
A|--------2-----------2----------|-------------------------------|
E|-------------------------------|-------------------------------|
  comes,                                          here comes the


G|------- ------- ------- -------|2------ ----2-- ------- 2---2--|
D|2-----------2-----------2---2--|--------2-----------2----------|
A|--------2-----------2----------|-------------------------------|
E|-------------------------------|-------------------------------|
  night,                                          Here comes the


G|------- ------- ------- -------|2------ ----2-- ------- 2---2--|
D|2-----------2-----------2---2--|--------2-----------2----------|
A|--------2-----------2----------|-------------------------------|
E|-------------------------------|-------------------------------|
  night,                                whoa- o - a - o - a - oh,


G|------- ------- ------- -------|------- ------- ------- -------|
D|2-----------2-----------2---2--|-------------------------------|
A|--------2-----------2----------|2-----------2-----------2---2--|
E|-------------------------------|--------2-----------2----------|
  yeah.

Bridge (solo):
G|------- ------- ------- -------|2------ ----2-- ----2-- ----2--|
D|2-----------2-----------2---2--|--------2---------------2------|
A|--------2-----------2----------|-------------------------------|
E|-------------------------------|-------------------------------|



G|------- ------- ------- -------|------- ------- ------- -------|
D|2-----------2-----------2---2--|2-----------2-----------2---2--|
A|--------2-----------2----------|--------2-----------2----------|
E|-------------------------------|-------------------------------|



G|------- ------- ------- -------|------- ------- ------- -------|
D|-------------------------------|-------------------------------|
A|2-----------2-------2-------2--|2-----------2-------2-------2--|
E|--------2---------------2------|--------2---------------2------|



G|------- ------- ------- -------|------- ------- ------- -------|
D|2-----------2-----------2---2--|-------------------------------|
A|--------2-----------2----------|2-----------2-------2-------2--|
E|-------------------------------|--------2---------------2------|


Verse:
G|------- ------- ------- -------|------- ------- ------- -------|
D|2-----------2-------2-------2--|-------------------------------|
A|--------2---------------2------|2-----------2-------2-------2--|
E|-------------------------------|--------2---------------2------|
  She's   him,    turning lights, now he's holding her the way I
        with    he's  down    and
                        the
G|------- ------- ------- -------|------- ------- ------- -------|
D|2-----------2-----------2---2--|-------------------------------|
A|--------2-----------2----------|0-----------0---2-------2---2--|
E|-------------------------------|-------------------------------|
  used to do,


G|------- ------- ------- -------|------- ------- ------- -------|
D|2-----------2-------2-------2--|-------------------------------|
A|--------2---------------2------|2-----------2-------2-------2--|
E|-------------------------------|--------2---------------2------|
  I could see her closing eyes    telling him lies, exactly like she
                      her     and

G|------- ------- ------- -------|------- ------- ------- -------|
D|2-----------2-----------2---2--|-------------------------------|
A|--------2-----------2----------|2-------2---2---2---2---2---2--|
E|-------------------------------|-------------------------------|
  told me too.                    Yeah,   yeah,   yeah, well, here it

Outro:
G|------- ------- ------- -------|2------ ----2-- ----2-- ----2--|
D|2-----------2-----------2---2--|--------2---------------2------|
A|--------2-----------2----------|-------------------------------|
E|-------------------------------|-------------------------------|
  comes,                                          here comes the


G|------- ------- ------- -------|2------ ----2-- ----2-- ----2--|
D|2-----------2-----------2---2--|--------2---------------2------|
A|--------2-----------2----------|-------------------------------|
E|-------------------------------|-------------------------------|
  night,                                          here comes the
repeat and fade out...

Please e-mail me for any corrections, or write a comment.

            
            
Suggest correction
Creating personal tab
Creating personal tab
You can edit any tab online and save it as your Personal.

You can edit, replace or remove any tab part or add personal notes – all changes will be seen only by you.

Personal tabs can be accessed anytime from any device, even offline.
Learn more »
Give kudos to tab author, rate the tab!
1 2 3 4 5
comments
print report bad tab
guest
You may want to rate the tab now too:
select rating
Wanna post a correction for this tab? Suggest correction