Oops, an error
Loading. Please wait.

Bandoliers Bass Tab

version 1
version 1

Whole song

Interactive

9,887 views 3 this week
no commentswrite comment
1 2 3 4 5
accurate
x 4
add to favorites
launch autoscroll
font size
0
reset
guitar tuner
Autoscroll
slow
fast
+/-
esc
set tempo
stop
Help us to improve Ultimate-Guitar.com Take our survey!
×
Author
Difficulty
intermediate
There was LOTs of fillers and stuff in this song, so I got abit lazy to the end, 
but don't worry I'll sort it out eventually...

G|----------------------------------------------------------|
D|---------------------------------------------------7-5-7--|
A|0-x--3-3-x--5-5-x--3-3-x--0-0-x--3-3-x--5-5-x--3-3--------|
E|----------------------------------------------------------|

Oh it's too late...
G|----------------------------------------------------------|
D|---------------------------------------------------7-5-7--|
A|0-x--3-3-x--5-5-x--3-3-x--0-0-x--3-3-x--5-5-x--3-3--------| 
E|----------------------------------------------------------|  
                                                                
G|---------------------------------------------------------|   
D|--------------------------3-3-3-1-3-1-3-1-3-3-3-1--------|  
A|0-x--3-3-x--5-5-x--3-3-x--------------------------3-3-3--|
E|---------------------------------------------------------|

G|----------------------------------------------------------|
D|---------------------------------------------------7-5-7--|
A|0-x--3-3-x--5-5-x--3-3-x--0-0-x--3-3-x--5-5-x--3-3--------| 
E|----------------------------------------------------------|  
                                                                
G|-------------------------------------------------------|   
D|--------------------------3-3-3-1-3-3-1-3--------------|  
A|0-x--3-3-x--5-5-x--3-3-x------------------6-5-6-6-5-7--|
E|-------------------------------------------------------|

Bandoliers...
G|-----------------------------------------------------|
D|----------------8-7-5-7----------------8----8---8----|
A|7--7-5-5--5-7-8----------7--7-5-5--5-7----7---7---7--|
E|-----------------------------------------------------|

G|----------------------------------------------------------|
D|----------------------------------------------------------|
A|7--7-5-5--5-7-7-7-5-7-5-7---5-7--7-5-5--5-7-7--7-5-5-5-5--|
E|--------------------------8-------------------------------|

G|---------------------------------------9------9------7------7---7---7--|
D|-----------------------------------------------------------------------|
A|2--2-2-2-2-2-2-/3--3-3-3--3-3-5-3--7-7---7--7---7--5---5-5----5---5----|
E|-----------------------------------------------------------------------|

G|----|
D|----|
A|5~--|
E|----|

G|---------------------------------------9------9------------9-----9--|
D|--------------------------------------------------------------------|
A|2--2-2-2-2-2-2-/3--3-3-3--3-3-5-3--7-7---7--7---7--7-7-7-7---7-7----|
E|--------------------------------------------------------------------|

2nd verse...
G|----------------------------------------------------------|
D|---------------------------------------------------7-5-7--|
A|0-x--3-3-x--5-5-x--3-3-x--0-0-x--3-3-x--5-5-x--3-3--------| 
E|----------------------------------------------------------|  

G|--------------------------------3/5-----3/5--------------|   
D|--------------------------3-3-1-----3-1-----3-1-3/5-3-0--|  
A|0-x--3-3-x--5-5-x--3-3-x---------------------------------|
E|---------------------------------------------------------|

G|---------------------------------------------------7-8-5--|
D|----------------------------------------------------------|
A|0-x--3-3-x--5-5-x--3-3-x--0-0-x--3-3-x--5-5-x--3-3--------| 
E|----------------------------------------------------------|  

G|--------------------------------3/5-----3/5--------------|   
D|--------------------------3-3-1-----3-1-----3-1-3/5-3-0--|  
A|0-x--3-3-x--5-5-x--3-3-x---------------------------------|
E|---------------------------------------------------------|

G|----------------------------------------------------------|
D|---------------------------------------------------5-8-7--|
A|0-x--3-3-x--5-5-x--3-3-x--0-0-x--3-3-x--5-5-x--3-3--------| 
E|----------------------------------------------------------|  

G|--------------------------------5-----5-7-5-8-7\5-7-10--|
D|--------------------------3-1-3---3-1-------------------|  
A|0-x--3-3-x--5-5-x--3-3-x--------------------------------|
E|--------------------------------------------------------|

Bandoliers...
G|-----------------------------------------------------|
D|----------------8-7-5-7----------------8----8---8----|
A|7--7-5-5--5-7-8----------7--7-5-5--5-7----7---7---7--|
E|-----------------------------------------------------|

G|----------------------------------------------------------|
D|---5-7-8-5----------5------------------------5---5---5----|
A|7-8--------7-8--5-7---7-5-7-5----5-7-8-7-5-7---7---7---7--|x2
E|------------------------------8---------------------------|

G|---------------------------------------9------9------7------7---7---7--|
D|-----------------------------------------------------------------------|
A|2--2-2-2-2-2-2-/3--3-3-3--3-3-5-3--7-7---7--7---7--5---5-5----5---5----|x2
E|-----------------------------------------------------------------------|

G|----|
D|----|
A|5~--|
E|----|

G|---------------------------------------9------9------------9-----9--|
D|--------------------------------------------------------------------|
A|2--2-2-2-2-2-2-/3--3-3-3--3-3-5-3--7-7---7--7---7--7-7-7-7---7-7----|x2
E|--------------------------------------------------------------------|

Bridge:
G|------------------------------------------------|
D|6--6-3--3--6--6-3--3--3h6-3--3-------3--3-------|
A|-------------------------------5--5-------5--5--|x4
E|------------------------------------------------|

G|------------------------------------------|
D|66666-3----66666-3----33333------33333----|
A|----------------------------5----------5--|x3
E|------------------------------------------|

G|-------------------------------------------|
D|66666-3----66666-3----33333-------33333----|
A|----------------------------55555-------5--|
E|-------------------------------------------|

G|---------------------------------------------|
D|66666-33333-66666-33333-33333-------33333----|
A|------------------------------55555-------5--|x4
E|---------------------------------------------|]

Outro:
G|----------------------------------------------------------|
D|---------------------------------------------------7-5-7--|
A|0-x--3-3-x--5-5-x--3-3-x--0-0-x--3-3-x--5-5-x--3-3--------| 
E|----------------------------------------------------------|  

G|--------------------------------3/5-----3/5--------------|   
D|--------------------------3-3-1-----3-1-----3-1-3/5-3-0--|  
A|0-x--3-3-x--5-5-x--3-3-x---------------------------------|
E|---------------------------------------------------------|

G|----------------------------------------------------------|
D|---5-7-8-5----------5------------------------5---5---5----|
A|7-8--------7-8--5-7---7-5-7-5----5-7-8-7-5-7---7---7---7--|x2
E|------------------------------8---------------------------|

G|----------------------------------------------------------|
D|----------------------------------------------------------|
A|7--7-5-5--5-7-7-7-5-7-5-7---5-7--7-5-5--5-7-7--7-5-5-5-5--|
E|--------------------------8-------------------------------|

The PROPER outro:
G|---------------------------------------9------9------7------7---7---7--|
D|-----------------------------------------------------------------------|
A|2--2-2-2-2-2-2-/3--3-3-3--3-3-5-3--7-7---7--7---7--5---5-5----5---5----|
E|-----------------------------------------------------------------------|

G|----|
D|----|
A|5~--|
E|----|

====x3

G|---------------------------------------9------9------------9-----9-----|
D|-----------------------------------------------------------------------|
A|2--2-2-2-2-2-2-/3--3-3-3--3-3-5-3--7-7---7--7---7--7-7-7-7---7-7----7--|
E|-----------------------------------------------------------------------|
Suggest correction
comments
print report bad tab
guest
You may want to rate the tab now too:
select rating
Wanna post a correction for this tab? Suggest correction