Oops, an error
Loading. Please wait.

Bandoliers solo tab

version 2
version 2

Solo

  • Others were not very accurate and only had the gen... Show more

Whole song

Interactive

49 views 1 this week
no commentswrite comment
1 2 3 4 5
2 more votes to show rating
add to favorites
×
Save as Personal and add changes to this tab that will be seen only by you. Learn more ›
×
You can save this tab as Personal to edit and correct it or add notes. All changes will be seen only by you. Learn more »
launch autoscroll
font size
0
reset
how to read this tab
guitar tuner
edit
Autoscroll
slow
fast
+/-
esc
set tempo
stop
Author
About this tab version
Others were not very accurate and only had the general structure instead of the full solo. Was this info helpful? Yes No
The others are slightly off so put this together, put any corrections in the comments but I'm pretty sure it's
right, thanks :)

e|----------------------12-----------------------------------------------------------------------------|
B|---10----12--12-13-15----10--12^12^/10---------------------------------------------------------------|
G|-9-----9-------------------------------9-12--12-14----12-14------------------------------------------|
D|---------------------------------------------------15-------14---14-14-----------------14------------|
A|----------------------------------------------------------------------15-12-----12-15-----15-12------|
E|-----------------------------------------------------------------------------15----------------------|

e|-----------------------------------------------------------------------------------------------------|
B|------------------------------------10-------------10~-----------------------------------------------|
G|-9-10-12--9-10-12-12--9-10-9--10-12-------9^----9----------------------------------------------------|
D|---------------------------------------12----12------------------------------------------------------|
A|-----------------------------------------------------------------------------------------------------|
E|-----------------------------------------------------------------------------------------------------|



************************************

| ~  Vibrato
| ^  bend up 
| /  slide up

************************************

            
            
Suggest correction
Creating personal tab
Creating personal tab
You can edit any tab online and save it as your Personal.

You can edit, replace or remove any tab part or add personal notes – all changes will be seen only by you.

Personal tabs can be accessed anytime from any device, even offline.
Learn more »
Give kudos to tab author, rate the tab!
1 2 3 4 5
comments
print report bad tab
guest
You may want to rate the tab now too:
select rating
Wanna post a correction for this tab? Suggest correction