Oops, an error
Loading. Please wait.

Bandoliers Tab

version 1
version 1

Whole song

Interactive

59,830 views 39 this week
4 commentsread comments
1 2 3 4 5
accurate
x 16
add to favorites
launch autoscroll
font size
0
reset
how to read this tab
guitar tuner
Tab Pro tools
  • play this tab
  • loop segment
  • change instrument
  • show fretboard
  • metronome
×
Best way to learn
"Bandoliers"
Autoscroll
slow
fast
+/-
esc
set tempo
stop
Contributor
Difficulty
novice
Them Crooked Vultures - Bandoliers

Tabbed By: Mark DiFranco

Tuning - E A D G B e


Main Riff:
e|--------------------------------------------------------------------| 
B|--------------------------------------------------------------------| 
G|-6--x-9-9--x-10-10--x-9-9--x-6-6--x-9-9--x-10-10--x-9-9--x----------| 
D|-x--x-x-x--x-x--x---x-x-x--x-x-x--x-x-x--x-x--x---x-x-x--x----------| x2
A|-x--x-x-x--x-x--x---x-x-x--x-x-x--x-x-x--x-x--x---x-x-x--x----------| 
E|-5--x-8-8--x-10-10--x-8-8--x-5-5--x-8-8--x-10-10--x-8-8--x----------| 

e|--------------------------------------------------------------------| 
B|-------------------------------------------8-8-8-xx-----------------| 
G|-10--10--10-10-10--10-10--10-10-10--10-10--7-7-7-xx-----------------| 
D|-10--10--10-10-10--10-10--10-10-10--10-10--5-5-5-xx-----------------| x1
A|-8---8---8--8--8---8--8---8--8--8---8--8----------------------------| 
E|--------------------------------------------------------------------| 


Riff 1:
e|--------------------------------------------------------------------| 
B|-9h10-12~-9-9--9h10-12~-9-9--6h8-10--10p8-6--6h8-10--6h8-10-6h8-10--| 
G|--------------------------------------------------------------------| 
D|--------------------------------------------------------------------| x2
A|--------------------------------------------------------------------| 
E|--------------------------------------------------------------------| 


Chorus:
e|--------------------------------------------------------------------| 
B|--------------------------------------------------------------------| 
G|-8--8-8--8-8-8-9--9-9--9-9-9--14--14-14--14-14-14-9--9-9--9-9-9-----| 
D|-x--x-x--x-x-x-x--x-x--x-x-x--x---x--x---x--x--x--x--x-x--x-x-x-----| x1
A|-6--6-6--6-6-6-7--7-7--7-7-7--12--12-12--12-12-12-x--x-x--x-x-x-----| 
E|-7--7-7--7-7-7-8--8-8--8-8-8--13--13-13--13-13-13-9--9-9--9-9-9-----| 

e|-------------------------------| 
B|-------------------------------| 
G|-9-9-9-9-9--9-9---9-9--9-9-9---| 
D|-x-x-x-x-x--x-x---x-x--x-x-x---| x1
A|-7-7-7-7-7--7-7---7-7--7-7-7---| 
E|-8-8-8-8-8--8-8---8-8--8-8-8---| 

e|--------------------------------------------------------------------| 
B|--------------------------------------------------------------------| 
G|-8--8-8--8-8-8-9--9-9--9-9-9--14--14-14--14-14-14-14-14-14-14-14-14-| 
D|-x--x-x--x-x-x-x--x-x--x-x-x--x---x--x---x--x--x--x--x--x--x--x--x--| x1
A|-6--6-6--6-6-6-7--7-7--7-7-7--12--12-12--12-12-12-12-12-12-12-12-12-| 
E|-7--7-7--7-7-7-8--8-8--8-8-8--13--13-13--13-13-13-13-13-13-13-13-13-| 


Solo:
e|---------------------------12-------------------------------------------| 
B|-----------13~-------15~----------10^-10^-------8~-8h10---8h10----------| 
G|-14~--12/14-----14h17--------14~------------7/9--------10~----9~--------| 
D|------------------------------------------------------------------------| 
A|------------------------------------------------------------------------| 
E|------------------------------------------------------------------------| 

e|--------------------------------------------------------8-10------------| 
B|----------------------------------8--------8--------8-10----------------| 
G|-9-9--7-------5h7p5-7/9-7-----7h9----7h9-7----7h9-7---------9h10p9-7/9--| 
D|--------7~-5h7------------7~--------------------------------------------| 
A|------------------------------------------------------------------------| 
E|------------------------------------------------------------------------|


Bridge:
e|----------------------------------------------------| 
B|----------------------------------------------------| 
G|-x-16--x-13-16-16--x-13--14-14--x-10--14-14--x-10---| 
D|-x-x---x-x--x--x---x-x---x--x---x-x---x--x---x-x----| x2
A|-x-x---x-x--x--x---x-x---x--x---x-x---x--x---x-x----| 
E|-x-16--x-12-16-16--x-12--13-13--x-10--13-13--x-10---| 

e|---------------------------------------------------------------|
B|---------------------------------------------------------------| 
G|-1616161616161616\13--1616161616161616\13--1414141414141414\10-| 
D|-x-x-x-x-x-x-x-x--x---x-x-x-x-x-x-x-x--x---x-x-x-x-x-x-x-x--x--|
A|-x-x-x-x-x-x-x-x--x---x-x-x-x-x-x-x-x--x---x-x-x-x-x-x-x-x--x--| 
E|-1616161616161616\12--1616161616161616\12--1313131313131313\10-|

e|---------------------|
B|---------------------|
G|-1414141414141414\10-|
D|-x-x-x-x-x-x-x-x--x--| x8
A|-x-x-x-x-x-x-x-x--x--|
E|-1313131313131313\10-|

"Fire Away" Riff:
e|-------------------------x------------------------| 
B|-------------------------0------------------------| 
G|---9/10-10/12-10--9/10---2------------------------| 
D|---x-x--x--x--x---x-x----0------------------------| 
A|---x-x--x--x--x---x-x----0------------------------| 
E|---9/10-10/12-10--9/10---1------------------------| 

Riff 2:
e|----------------------------------------10-12-----------------------| 
B|--9h10-12--9~-9h10-12-9h10-12-10-9-10~------------------------------| 
G|----------------------------------------------10~-------------------| 
D|--------------------------------------------------------------------| 
A|--------------------------------------------------------------------| 
E|--------------------------------------------------------------------| 
comments
print report bad tab
4 comments total. Showing first comments.
0 reply
Lykke wrote on January 17 2010, 07:23 am

mostly good, I guess

0 reply
Shark17 wrote on January 25 2010, 10:00 am

Thanks to LeylandLatic for help with the lead.

0 reply
zvxqykhg wrote on August 20 2010, 11:29 am

I think at some points during the second verse the riff changes to


e|-----------------------
B|-----------------------
G|-6--x-9-9--x-4-4--x-6-6
D|-x--x-x-x--x-x-x--x-x-x
A|-x--x-x-x--x-x-x--x-x-x
E|-5--x-8-8--x-3-3--x-5-5

I want to post or [tab]
guest
You may want to rate the tab now too:
select rating
Please do not post tabs as comments. Select "correction" instead!