Oops, an error
Loading. Please wait.

Bandoliers tab

version 2
version 2

Whole song

Interactive

2,897 views 78 this week
no commentswrite comment
1 2 3 4 5
x 5
add to favorites
×
Save as Personal and add changes to this tab that will be seen only by you. Learn more ›
×
You can save this tab as Personal to edit and correct it or add notes. All changes will be seen only by you. Learn more »
launch autoscroll
font size
0
reset
how to read this tab
guitar tuner
edit
Autoscroll
slow
fast
+/-
esc
set tempo
stop
Author
Difficulty
-------------------------------------------------------------------------------
                                              Bandoliers - Them Crooked Vultures
-------------------------------------------------------------------------------
Tabbed by: Juln

Tuning: Standard


Main Riff:
e|------------------------------------------------------------| 
B|------------------------------------------------------------| 
G|-6--x-9-9--x-10-10--x-9-9--x-6-6--x-9-9--x-10-10--x-9-9--x--| 
D|-x--x-x-x--x-x--x---x-x-x--x-x-x--x-x-x--x-x--x---x-x-x--x--| x2
A|-x--x-x-x--x-x--x---x-x-x--x-x-x--x-x-x--x-x--x---x-x-x--x--| 
E|-5--x-8-8--x-10-10--x-8-8--x-5-5--x-8-8--x-10-10--x-8-8--x--| 

Verse:
e|--------------------------------| 
B|--------------------------------| 
G|-6-6--x-9-9--x-10-10--x-9-9--x--| 
D|-x-x--x-x-x--x-x--x---x-x-x--x--| x3
A|-x-x--x-x-x--x-x--x---x-x-x--x--| 
E|-5-5--x-8-8--x-10-10--x-8-8--x--| 

e|-----------------------------------------------| 
B|--------10-------------10----------------------| 
G|-----------10----12----------10---------10-10--| 
D|----10-------10-----10---------10-------x--x---| 
A|--8-------------------------------------x--x---| 
E|----------------------------------------10-10--| 

Pre-Chorus:

Guitar 1
e|----------------------------------------------------------| 
B|----------------------------------------------------------| 
G|-16-16--13-13--16-16--13-13--14-14--10-10--14-14--10-10---| 
D|-x--x---x--x---x--x---x--x---x--x---x--x---x--x---x--x----| x2
A|-x--x---x--x---x--x---x--x---x--x---x--x---x--x---x--x----| 
E|-16-16--12-12--16-16--12-12--13-13--10-10--13-13--10-10---| 

Guitar 2
e|-------7-------------7----------------------------------------------| 
B|-9h10-----9-9~-9h10-----9-9~-6h8-10--6-6~--6h8-10---6h8-10-6h8-10---| 
G|--------------------------------------------------------------------| 
D|--------------------------------------------------------------------| x2
A|--------------------------------------------------------------------| 
E|--------------------------------------------------------------------| 

Chorus:
e|--------------------------------------------------------------------| 
B|--------------------------------------------------------------------| 
G|-8--8-8--8-8-8-9--9-9--9-9-9--14--14-14--14-14-14-9--9-9--9-9-9-----| 
D|-x--x-x--x-x-x-x--x-x--x-x-x--x---x--x---x--x--x--x--x-x--x-x-x-----| 
A|-6--6-6--6-6-6-7--7-7--7-7-7--12--12-12--12-12-12-x--x-x--x-x-x-----| 
E|-7--7-7--7-7-7-8--8-8--8-8-8--13--13-13--13-13-13-9--9-9--9-9-9-----| 

e|-------------------------------| 
B|-------------------------------| 
G|-9-9-9-9-9--9-9---9-9--9-9-9---| 
D|-x-x-x-x-x--x-x---x-x--x-x-x---| 
A|-7-7-7-7-7--7-7---7-7--7-7-7---| 
E|-8-8-8-8-8--8-8---8-8--8-8-8---| 

e|--------------------------------------------------------------------| 
B|--------------------------------------------------------------------| 
G|-8--8-8--8-8-8-9--9-9--9-9-9--14--14-14--14-14-14-14-14-14-14-14-14-| 
D|-x--x-x--x-x-x-x--x-x--x-x-x--x---x--x---x--x--x--x--x--x--x--x--x--| 
A|-6--6-6--6-6-6-7--7-7--7-7-7--12--12-12--12-12-12-12-12-12-12-12-12-| 
E|-7--7-7--7-7-7-8--8-8--8-8-8--13--13-13--13-13-13-13-13-13-13-13-13-| 


Solo:
Guitar 1
e|------------------------------------------------------------------------| 
B|---------------------15~---17-----10b-10b-------8~-8h10---8h10----------| 
G|-14~-----16~----16h17--------14~------------7/9--------10~----9~--------| 
D|------14----------------------------------------------------------------| 
A|------------------------------------------------------------------------| 
E|------------------------------------------------------------------------| 

e|----------------------------------------------------------------------------| 
B|-----------------------------------8------8-8--------8-10-------------------| 
G|-9-9--5--------5----7/9--5-----9h10--9h10-----10-9-10-----7~--9b10r9-7-9----| 
D|--------7~-5h7---7---------7~--------------------------------------------7~-| 
A|----------------------------------------------------------------------------| 
E|----------------------------------------------------------------------------|

Guitar 2
e|--------------------------------| 
B|--------------------------------| 
G|-6-6--x-9-9--x-10-10--x-9-9--x--| 
D|-x-x--x-x-x--x-x--x---x-x-x--x--| x3
A|-x-x--x-x-x--x-x--x---x-x-x--x--| 
E|-5-5--x-8-8--x-10-10--x-8-8--x--| 

e|-----------------------------------------------| 
B|--------10-------------10----------------------| 
G|-----------10----12----------10---------10-10--| 
D|----10-------10-----10---------10-------x--x---| 
A|--8-------------------------------------x--x---| 
E|----------------------------------------10-10--| 


Verse:
Guitar 1
e|---------| 
B|---------| 
G|-6-6-----| 
D|-x-x-----| x3
A|-x-x-----| 
E|-5-5-----|

e|-----------------------------------------------| 
B|--------10-------------10----------------------| 
G|-----------10----12----------10---------10-10--| 
D|----10-------10-----10---------10-------x--x---| 
A|--8-------------------------------------x--x---| 
E|----------------------------------------10-10--| 

Guitar 2
e|--------------------------------| 
B|--------------------------------| 
G|-6-6--x-9-9--x-10-10--x-9-9--x--| 
D|-x-x--x-x-x--x-x--x---x-x-x--x--| x3
A|-x-x--x-x-x--x-x--x---x-x-x--x--| 
E|-5-5--x-8-8--x-10-10--x-8-8--x--| 

e|-----------------------------------------------| 
B|--------10-------------10----------------------| 
G|-----------10----12----------10---------10-10--| 
D|----10-------10-----10---------10-------x--x---| 
A|--8-------------------------------------x--x---| 
E|----------------------------------------10-10--| 

Pre-Chorus:
("Bandoliers, to fight you dear")

Guitar 1
e|----------------------------------------------------------| 
B|----------------------------------------------------------| 
G|-16-16--13-13--16-16--13-13--14-14--10-10--14-14--10-10---| 
D|-x--x---x--x---x--x---x--x---x--x---x--x---x--x---x--x----| x2
A|-x--x---x--x---x--x---x--x---x--x---x--x---x--x---x--x----| 
E|-16-16--12-12--16-16--12-12--13-13--10-10--13-13--10-10---| 

Guitar 2
e|-------7-------------7----------------------------------------------| 
B|-9h10-----9-9~-9h10-----9-9~-6h8-10--6-6~--6h8-10---6h8-10-6h8-10---| 
G|--------------------------------------------------------------------| 
D|--------------------------------------------------------------------| x2
A|--------------------------------------------------------------------| 
E|--------------------------------------------------------------------| 

Chorus:
e|--------------------------------------------------------------------| 
B|--------------------------------------------------------------------| 
G|-8--8-8--8-8-8-9--9-9--9-9-9--14--14-14--14-14-14-9--9-9--9-9-9-----| 
D|-x--x-x--x-x-x-x--x-x--x-x-x--x---x--x---x--x--x--x--x-x--x-x-x-----| 
A|-6--6-6--6-6-6-7--7-7--7-7-7--12--12-12--12-12-12-x--x-x--x-x-x-----| 
E|-7--7-7--7-7-7-8--8-8--8-8-8--13--13-13--13-13-13-9--9-9--9-9-9-----| 

e|-------------------------------| 
B|-------------------------------| 
G|-9-9-9-9-9--9-9---9-9--9-9-9---| 
D|-x-x-x-x-x--x-x---x-x--x-x-x---| 
A|-7-7-7-7-7--7-7---7-7--7-7-7---| 
E|-8-8-8-8-8--8-8---8-8--8-8-8---| 
e|--------------------------------------------------------------------| 
B|--------------------------------------------------------------------| 
G|-8--8-8--8-8-8-9--9-9--9-9-9--14--14-14--14-14-14-9--9-9--9-9-9-----| 
D|-x--x-x--x-x-x-x--x-x--x-x-x--x---x--x---x--x--x--x--x-x--x-x-x-----| 
A|-6--6-6--6-6-6-7--7-7--7-7-7--12--12-12--12-12-12-x--x-x--x-x-x-----| 
E|-7--7-7--7-7-7-8--8-8--8-8-8--13--13-13--13-13-13-9--9-9--9-9-9-----| 

e|-------------------------------| 
B|-------------------------------| 
G|-9-9-9-9-9--9-9---9-9--9-9-9---| 
D|-x-x-x-x-x--x-x---x-x--x-x-x---| 
A|-7-7-7-7-7--7-7---7-7--7-7-7---| 
E|-8-8-8-8-8--8-8---8-8--8-8-8---| 

e|--------------------------------------------------------------------| 
B|--------------------------------------------------------------------| 
G|-8--8-8--8-8-8-9--9-9--9-9-9--14--14-14--14-14-14-14-14-14-14-14-14-| 
D|-x--x-x--x-x-x-x--x-x--x-x-x--x---x--x---x--x--x--x--x--x--x--x--x--| x2
A|-6--6-6--6-6-6-7--7-7--7-7-7--12--12-12--12-12-12-12-12-12-12-12-12-| 
E|-7--7-7--7-7-7-8--8-8--8-8-8--13--13-13--13-13-13-13-13-13-13-13-13-| 



Bridge:
e|----------------------------------------------------| 
B|----------------------------------------------------| 
G|-x-16--x-13-16-16--x-13--14-14--x-10--14-14--x-10---| 
D|-x-x---x-x--x--x---x-x---x--x---x-x---x--x---x-x----| x2
A|-x-x---x-x--x--x---x-x---x--x---x-x---x--x---x-x----| 
E|-x-16--x-12-16-16--x-12--13-13--x-10--13-13--x-10---| 

e|---------------------------------------------------------------|
B|---------------------------------------------------------------| 
G|-1616161616161616\13--1616161616161616\13--1414141414141414\10-| 
D|-x-x-x-x-x-x-x-x--x---x-x-x-x-x-x-x-x--x---x-x-x-x-x-x-x-x--x--|
A|-x-x-x-x-x-x-x-x--x---x-x-x-x-x-x-x-x--x---x-x-x-x-x-x-x-x--x--| 
E|-1616161616161616\12--1616161616161616\12--1313131313131313\10-|

e|---------------------|
B|---------------------|
G|-1414141414141414\10-|
D|-x-x-x-x-x-x-x-x--x--|
A|-x-x-x-x-x-x-x-x--x--|
E|-1313131313131313\10-|

("Fire Away"):
e|-------------------------x------------------------| 
B|-------------------------x------------------------| 
G|---9/10-10/12-10--9/10---2------------------------| 
D|---x-x--x--x--x---x-x----3------------------------| 
A|---x-x--x--x--x---x-x----0------------------------| 
E|---9/10-10/12-10--9/10---1------------------------|

Last verse:
e|--------------------------------| 
B|--------------------------------| 
G|-6-6--x-9-9--x-10-10--x-9-9--x--| 
D|-x-x--x-x-x--x-x--x---x-x-x--x--| x3
A|-x-x--x-x-x--x-x--x---x-x-x--x--| 
E|-5-5--x-8-8--x-10-10--x-8-8--x--| 

e|-----------------------------------------------| 
B|--------10-------------10----------------------| 
G|-----------10----12----------10---------10-10--| 
D|----10-------10-----10---------10-------x--x---| 
A|--8-------------------------------------x--x---| 
E|----------------------------------------10-10--| 

Pre-Chorus:
("Goodbye")

Guitar 1
e|----------------------------------------------------------| 
B|----------------------------------------------------------| 
G|-16-16--13-13--16-16--13-13--14-14--14-14--10-10--10-10---| 
D|-x--x---x--x---x--x---x--x---x--x---x--x---x--x---x--x----| x4
A|-x--x---x--x---x--x---x--x---x--x---x--x---x--x---x--x----| 
E|-16-16--12-12--16-16--12-12--13-13--13-13--10-10--10-10---| 

Guitar 2 
e|----------------------------------------10-12-----------------------| 
B|--9h10-12--9~-9h10-12-9h10-12-10-9-10~------------------------------| 
G|----------------------------------------------10~-------------------| 
D|--------------------------------------------------------------------| 
A|--------------------------------------------------------------------| 
E|--------------------------------------------------------------------| 

Chorus:
e|--------------------------------------------------------------------| 
B|--------------------------------------------------------------------| 
G|-8--8-8--8-8-8-9--9-9--9-9-9--14--14-14--14-14-14-9--9-9--9-9-9-----| 
D|-x--x-x--x-x-x-x--x-x--x-x-x--x---x--x---x--x--x--x--x-x--x-x-x-----| 
A|-6--6-6--6-6-6-7--7-7--7-7-7--12--12-12--12-12-12-x--x-x--x-x-x-----| 
E|-7--7-7--7-7-7-8--8-8--8-8-8--13--13-13--13-13-13-9--9-9--9-9-9-----| 

e|-------------------------------| 
B|-------------------------------| 
G|-9-9-9-9-9--9-9---9-9--9-9-9---| 
D|-x-x-x-x-x--x-x---x-x--x-x-x---| 
A|-7-7-7-7-7--7-7---7-7--7-7-7---| 
E|-8-8-8-8-8--8-8---8-8--8-8-8---| 
e|--------------------------------------------------------------------| 
B|--------------------------------------------------------------------| 
G|-8--8-8--8-8-8-9--9-9--9-9-9--14--14-14--14-14-14-9--9-9--9-9-9-----| 
D|-x--x-x--x-x-x-x--x-x--x-x-x--x---x--x---x--x--x--x--x-x--x-x-x-----| 
A|-6--6-6--6-6-6-7--7-7--7-7-7--12--12-12--12-12-12-x--x-x--x-x-x-----| 
E|-7--7-7--7-7-7-8--8-8--8-8-8--13--13-13--13-13-13-9--9-9--9-9-9-----| 

e|-------------------------------| 
B|-------------------------------| 
G|-9-9-9-9-9--9-9---9-9--9-9-9---| 
D|-x-x-x-x-x--x-x---x-x--x-x-x---| 
A|-7-7-7-7-7--7-7---7-7--7-7-7---| 
E|-8-8-8-8-8--8-8---8-8--8-8-8---| 

e|--------------------------------------------------------------------| 
B|--------------------------------------------------------------------| 
G|-8--8-8--8-8-8-9--9-9--9-9-9--14--14-14--14-14-14-14-14-14-14-14-14-| 
D|-x--x-x--x-x-x-x--x-x--x-x-x--x---x--x---x--x--x--x--x--x--x--x--x--| x2
A|-6--6-6--6-6-6-7--7-7--7-7-7--12--12-12--12-12-12-12-12-12-12-12-12-| 
E|-7--7-7--7-7-7-8--8-8--8-8-8--13--13-13--13-13-13-13-13-13-13-13-13-| 

************************************

| /   slide up
| \   slide down
| h   hammer-on
| p   pull-off
| ~   vibrato
| +   harmonic
| x   Mute note
| b   Bend
| pb  Pre-bend
| br  Bend release
| pbr Pre-bend release
| brb Bend release bend

************************************

            
            
Suggest correction
Creating personal tab
Creating personal tab
You can edit any tab online and save it as your Personal.

You can edit, replace or remove any tab part or add personal notes – all changes will be seen only by you.

Personal tabs can be accessed anytime from any device, even offline.
Learn more »
comments
print report bad tab
guest
You may want to rate the tab now too:
select rating
Wanna post a correction for this tab? Suggest correction