Oops, an error
Loading. Please wait.

Calgulove Bass Tab

2,604 views 1 this week
3 commentsread comments
1 2 3 4 5
1 last vote to show rating
add to favorites
launch autoscroll
font size
0
reset
guitar tuner
Autoscroll
slow
fast
+/-
esc
set tempo
stop
Help us to improve Ultimate-Guitar.com Take our survey!
×
Author
Difficulty
intermediate
I know I accidently missed out the I, but I can't do anything about it now I'm 
afraid. Type-Os; the woe of the keyboard.

G|-----------------------------------|
D|-----------------------------------|
A|5-7-8-10--10-8-7--10-7-10-12--12\--|x4
E|-----------------------------------|

G|----------------|   |---------------------------------|
D|----------------|   |---------------------------------|
A|3-5-5-8-8--10\--|x3 |6p5-6p5-6p5-6p5-6p5-6p5-6p5-6p5--|x2
E|----------------|   |---------------------------------|

Verse:
G|----------------|   |---------------------------------|
D|----------------|   |---------------------------------|
A|3-5-5-8-8--10\--|x7 |6p5-6p5-6p5-6p5-6p5-6p5-6p5-6p5--|x2
E|----------------|   |---------------------------------|

Pre-chorus:
G|-------------------------------------------------|
D|-------------------------------------------------|    
A|5--5--5---3-5-5-5-3--5--6--6--6-3-5-6-6-6--8--6--|     
E|--------5----------------------------------------|      
                                                          
G|---7---7---------7------------8---8---------8----------|
D|-------------------------------------------------------|
A|5----5---5-0-3-5---5-3--5--6----6---6-3-5-6---6--8--6--|
E|-------------------------------------------------------|

G|-------------------------------------------------|
D|-------------------------------------------------|    
A|5--5--5---3-5-5-5-3--5--6--6--6-3-5-6-6-6--8--6--|     
E|--------5----------------------------------------|

G|-----------------------------------------------|
D|-----------------------------------------------|    
A|5--5--5-----5-5-5-3--5--6--6--6-3-5-6-6-----6--|     
E|-----------------------------------------------|  

Chorus:
G|---------------------------|   |-------------------------|
D|5--5--5-7-5----------------|   |5--5--5------------------|
A|-------------5--5--5-3--5--|x2 |-----------5--5--5-3--5--|
E|---------------------------|   |-------------------------|

G|-----------------------------------------------------------------------|
D|5--5--5-7-5----------------5--5--5-7-5---------------------------------|
A|-------------5--5--5-3--5---------------5--5--5-5-5-5-5-5-5-5-5-5-5-5--|
E|-----------------------------------------------------------------------|

Post-chorus:
G|----------------|
D|----------------|
A|3-5-5-8-8--10\--|x8
E|----------------|

Verse:
G|----------------|   |---------------------------------|
D|----------------|   |---------------------------------|
A|3-5-5-8-8--10\--|x7 |6p5-6p5-6p5-6p5-6p5-6p5-6p5-6p5--|x2
E|----------------|   |---------------------------------|

Pre-chorus:
G|-------------------------------------------------|
D|-------------------------------------------------|    
A|5--5--5---3-5-5-5-3--5--6--6--6-3-5-6-6-6--8--6--|     
E|--------5----------------------------------------|      
                                                          
G|---7---7---------7------------8---8---------8----------|
D|-------------------------------------------------------|
A|5----5---5-0-3-5---5-3--5--6----6---6-3-5-6---6--8--6--|
E|-------------------------------------------------------|

G|-------------------------------------------------|
D|-------------------------------------------------|    
A|5--5--5---3-5-5-5-3--5--6--6--6-3-5-6-6-6--8--6--|     
E|--------5----------------------------------------|

G|-----------------------------------------------|
D|-----------------------------------------------|    
A|5--5--5-----5-5-5-3--5--6--6--6-3-5-6-6-----6--|     
E|-----------------------------------------------|  

Chorus:
G|---------------------------|   |-------------------------|
D|5--5--5-7-5----------------|   |5--5--5------------------|
A|-------------5--5--5-3--5--|x2 |-----------5--5--5-3--5--|
E|---------------------------|   |-------------------------|
x2

G|-------------------------------------------------|
D|5--5--5-7-5----------------5--5------------------|
A|-------------5--5--5-3--5----------5--5--5-3--5--|
E|-------------------------------------------------|

G|-------------------------------------------------------------|
D|5--5--5------------------5--5--5--5----------------5---------|
A|-----------5--5--5-3--5--------------5--5--5-3--5------------|
E|-------------------------------------------------------------|

Bridge:
G|------------------|
D|------------------|
A|5555555555555555--|x4
E|------------------|

G|------------------|
D|6666666666666666--|
A|------------------|x4
E|------------------|

G|------------------|
D|------------------|
A|5555555555555555--|x8
E|------------------|

G|-----------------------------------|   |------------------|
D|-----------------------------------|   |------------------|
A|5-7-8-10--10-8-7--10-7-10-12--12\--|x3 |5-7-8-10--10-8-7--|
E|-----------------------------------|   |------------------|
Suggest correction
Give kudos to tab author, rate the tab!
1 2 3 4 5
comments
print report bad tab
3 comments total.
0 reply
Grohlism 67 Jan 20, 2010 01:05 PM

It's IndieJoe again. Not to be mean or anything but there is no bass part for this song so I won't rate the tab.

0 reply
OccaTheBassist 10 Mar 25, 2010 12:58 AM

there is a bass part, it's distorted so it may sound a bit like 2 guitars, but there's definitly a bass part in there.

0 reply
IndieJoe 1,997 Mar 25, 2010 09:44 AM

Actually, it's controlled by JPJ's feet. Each octave note has a pedal and he uses the pedals to play the bass.

guest
You may want to rate the tab now too:
select rating
Wanna post a correction for this tab? Suggest correction