Oops, an error
Loading. Please wait.

Caligulove Tab

version 2
version 2

Whole song

Interactive

12,933 views 12 this week
4 commentsread comments
1 2 3 4 5
x 9
add to favorites
launch autoscroll
font size
0
reset
how to read this tab
guitar tuner
Autoscroll
slow
fast
+/-
esc
set tempo
stop
Help us to improve Ultimate-Guitar.com Take our survey!
×
Author
Difficulty
novice
Tabbed by Matt Corcoran, gabewang@gmail.com

Intro

e|---------------------------------------------------------------|
B|---------------------------------------------------------------|
G|---7--9-10-12--12-10-9---12-9--12-12s14-14---------------------|
D|---7--9-10-12--12-10-9---12-9--12-12s14-14---------------------|
A|---5--7-8--10--10-8--7---10-7--10-10s12-12---------------------|
E|---------------------------------------------------------------|

Keyboard solo rhythm/Verse

e|-----------------------------------------------------------------------|
B|-----------------------------------------------------------------------|
G|--5--7-7--10-10-10---12---5--7-7--10-10-10---12---5--7-7--10-10-10---12|
D|--5--7-7--10-10-10---12---5--7-7--10-10-10---12---5--7-7--10-10-10---12|
A|--3--5-5--8--8--8----10---3--5-5--8--8--8----10---3--5-5--8--8--8----10|
E|-----------------------------------------------------------------------|

You'll know when to do this part

e|---------------------------------------------------------------|
B|---------------------------------------------------------------|
G|-8s7-8s7-8s7-8s7-8s7-8s7-8s7-8s7-8s7-8s7-8s7-8s7---------------|
D|-8s7-8s7-8s7-8s7-8s7-8s7-8s7-8s7-8s7-8s7-8s7-8s7---------------|
A|-6s5-6s5-6s5-6s5-6s5-6s5-6s5-6s5-6s5-6s5-6s5-6s5---------------|
E|---------------------------------------------------------------|

Bridge

e|---------------------------------------------------------------|
B|---------------------------------------------------------------|
G|--7-7-7----5-7-7--7-5-7--8-8-8--5---8-8--8-10-8----------------|
D|--7-7-7--7-5-7-7--7-5-7--8-8-8--5-7-8-8--8-10-8----------------|
A|--5-5-5--7-3-5-5--5-3-5--6-6-6--3-7-6-6--6-8--6----------------|
E|---------5------------------------5----------------------------|

Chorus

e|---------------------------------------------------------------|
B|---------------------------------------------------------------|
G|-12-12--12-14-12--7-7--7-5-7-----------------------------------|
D|-12-12--12-14-12--7-7--7-5-7-----------------------------------|
A|-10-10--10-12-10--5-5--5-3-5-----------------------------------|
E|---------------------------------------------------------------|

Solo section

e|---------------------------------------------------------------|
B|---------------------------------------------------------------|
G|-------s7~-8~-----s7~---------s7~ 8~----s7~--------------------|
D|--0~-----------0~-----7~--0~---------0~-----7~-----------------|
A|---------------------------------------------------------------|
E|---------------------------------------------------------------|

e|----------------------------------------------------11p8h11p8------------11p8-----------------|
B|-9p8h9p8h9p8h9p8h9p8h9p8h9p8h9p8h9p8h9p8h9p8h9p8h9p8----------9p8h9p8h9p8-----9p8h9p8h9p8h9p8~|
G|----------------------------------------------------------------------------------------------|
D|----------------------------------------------------------------------------------------------|
A|----------------------------------------------------------------------------------------------|
E|----------------------------------------------------------------------------------------------|

e|---------------------------------------------------------------|
B|---------------------------------------------------------------|
G|-------s7~-8~-----s7~---------s7~ 8~----s7~--------------------|
D|--0~-----------0~-----7~--0~---------0~-----7~-----------------|
A|---------------------------------------------------------------|
E|---------------------------------------------------------------|

This part is the right idea, I can't tell exactly what he's doing behind JPJ soloing on 
instrument he's playing there(keyboard again?)

e|---------------------------11----11---11b-11b-11b--------------|
B|-----9~----9b-9b-9b-9-9-9-----9-----9--------------------------|
G|---------------------------------------------------------------|
D|--7------------------------------------------------------------|
A|---------------------------------------------------------------|
E|---------------------------------------------------------------|
Suggest correction
comments
print report bad tab
4 comments total. Showing first comments.
0 reply
rd93 282 Dec 23, 2009 05:13 PM

The intro is much lower, if you see him play it live it starts with a d power chord

0 reply
Grohlism 67 Dec 25, 2009 10:28 AM

Tuning's wrong. Not sure exactly what it is but the low E string is tuned down to a low A.

0 reply
rd93 282 Jan 22, 2010 04:22 PM

I worded that wrong... I meant to say your intro is one octave too high

guest
You may want to rate the tab now too:
select rating
Wanna post a correction for this tab? Suggest correction