Oops, an error
Loading. Please wait.

Caligulove Tab

version 4
version 4

Whole song

Interactive

10,782 views 9 this week
no commentswrite comment
1 2 3 4 5
x 9
add to favorites
launch autoscroll
font size
0
reset
how to read this tab
guitar tuner
Autoscroll
slow
fast
+/-
esc
set tempo
stop
Help us to improve Ultimate-Guitar.com Take our survey!
×
Author
Difficulty
Tuning
intermediate
D A D G B E
This is the 2nd Vultures piece I've Tabbed on
Ultimate Guitar and there were no decent TABS
for this wicked song.

Tuning: Drop D (D A D G B E)

       E|--------------------------|--------------------------|
       B|--------------------------|--------------------------|
       G|--------------------------|--------------------------|
       D|--------------------------|--------------------------| x2
       A|-----------------3--------|-----------------3--------|
       D|--0-2-3-5--5-3-2---5/7--7-|--0-2-3-5--5-3-2---5/7--7-|

     |-------------------|    |----------------------------------|
     |-------------------|    |----------------------------------|
     |-------------------|    |----------------------------------|
     |--5-5-7-10-10-12~--| x3 |----------------------------------| x2
     |--3-3-5-8--8--10~--|    |--6p5-6p5-6p5-6p5-6p5-6p5-6p5-6p5-|
     |-------------------|    |--0---0---0---0---0---0---0---0---|

     |-------------------|    |----------------------------------|
     |-------------------|    |----------------------------------|
     |-------------------|    |----------------------------------|
     |--5-5-7-10-10-12~--| x7 |----------------------------------| x2
     |--3-3-5-8--8--10~--|    |--6p5-6p5-6p5-6p5-6p5-6p5-6p5-6p5-|
     |-------------------|    |--0---0---0---0---0---0---0---0---| 

           |-----------------------------------------------|
           |-----------------------------------------------|
           |-----------------------------------------------|
           |-----------------------------------------------| x3
           |--5-5-5---3-5-5-5-3-5---6-6-6---3-5-6-6-6-8-6--|
           |--------7--------------------------------------|

           |-----------------------------------------------|
           |-----------------------------------------------|
           |-----------------------------------------------|
           |-----------------------------------------------|
           |-5---5---5---5-5-5-3-5---6-6-6---3-5-6-6-6-8-6-|
           |-----------------------------------------------|

         |----------------------------------------------------|
         |----------------------------------------------------|
         |----------------------------------------------------|
         |-------------7-7-7-8-7---x2---------------7-7-7-8-7-|
         |-5-5-5-7-3---5-5-5-6-5--------5---5---5---5-5-5-6-5-|
         |-5-5-5-7-3--------------------5---5---5-------------|

     |-------------------------------------------------|---------|
     |-------------------------------------------------|---------|
     |-------------------------------------------------|---------|
     |-----------------7-7-7-8-7-------------------7-7-|---------| x8
     |-5---5---5-7-3---5-5-5-6-5---5---5---5-7-3---5-5-|-6p5-6p5-|
     |-5---5---5-7-3---------------5---5---5-7-3-------|-0---0---|

These are all the riffs you need to know to play this song.

When there are riffs contaning just 1 note after note, feel
free to double up those notes fretting (on the same fret)
the string below, therefore it become a power chord. 

There is a part in the song that i haven't tabbed out - 
just mess around with a D chord and variations of that.

Hope u find this TAB useful. Enjoy.
Suggest correction
comments
print report bad tab
guest
You may want to rate the tab now too:
select rating
Wanna post a correction for this tab? Suggest correction