Oops, an error
Loading. Please wait.

Dead End Friends Tab

version 1
version 1

Whole song

Interactive

18,558 views 9 this week
1 commentread comment
1 2 3 4 5
x 4
add to favorites
launch autoscroll
font size
0
reset
how to read this tab
guitar tuner
Autoscroll
slow
fast
+/-
esc
set tempo
stop
Help us to improve Ultimate-Guitar.com Take our survey!
×
Author
Unfinished at the moment, just running through the tracks

Tuning: Standard but album tuning is probably drop-d

Intro:
e|--------------------------------------------|
B|--------------------------------------------|
G|-18-18-18-14-17-17-17-----------------------|
D|-x--x--x--x--x--x--x------------------------|x4
A|-16-16-16-12-15-15-15-9-11-11-11-9-11-11-11-|
E|----------------------7-9--9--9--7-9--9--9--|

Verse:(Different ending for second part but may just be on second guitar)
e|----------------------------------------|
B|----------------------------------------|
G|----------------------------------------|
D|-11--11-9-11--11-9-11--11-9-11-12-12-12-|x2
A|-9---9--7-9---9--7-9---9--7-9--10-10-10-|
E|----------------------------------------|

e|----------------------------------------|
B|----------------------------------------|
G|----------------------------------------|
D|----------------------------------------|x2
A|-11--11-9-11--11-9-11--11-9-11-12-12-12-|
E|-9---9--7-9---9--7-9---9--7-9--10-10-10-|


Fill Riff:
e|----------------------------|
B|----------------------------|
G|-13--13-9-------------------|
D|----------11--11-9-11-9-----|
A|------------------------11/-|
E|----------------------------|
Suggest correction
comments
print report bad tab
1 comment total.
0 reply
Chirp08 30 Nov 18, 2009 03:13 PM

Chorus sounds like this, the let that first chord ring, the strumming on the second chord isn't difficult but you just have to listen to get it then it goes back into that main riff and repeats.

e|----------------------------------------------------------|
B|----------------------------------------------------------|
G|-11-------------------------------------------------------|
D|-9------------12---12--12---11--11-9-11--11-9-11--11-9-11-|
A|--------------10---10--10---9---9--7-9---9--7-9---9--7-9--|
E|----------------------------------------------------------|

guest
You may want to rate the tab now too:
select rating
Wanna post a correction for this tab? Suggest correction