Oops, an error
Loading. Please wait.

Dead End Friends Tab

version 2
version 2

Whole song

Interactive

38,348 views 21 this week
9 commentsread comments
1 2 3 4 5
x 19
add to favorites
launch autoscroll
font size
0
reset
how to read this tab
guitar tuner
Autoscroll
slow
fast
+/-
esc
set tempo
stop
Help us to improve Ultimate-Guitar.com Take our survey!
×
Author
Difficulty
novice
Them Crooked Vultures - Dead End Friends

Tabbed By: Mark DiFranco


Tuning - E A D G B e


Intro:
e|--------------------------------------------------------------------| 
B|--------------------------------------------------------------------| 
G|---18-18-18-x-17-17-17----------------------------------------------| 
D|--------------------------------------------------------------------| x4
A|---16-16-16-x-15-15-15--9h11-11-11--9h11-11-11----------------------| 
E|------------------------9-9--9--9---9-9--9--9-----------------------| 

e|--------------------------------------------------------------------| 
B|--------------------------------------------------------------------| 
G|--------------------------------------------------------------------| 
D|---11--11-9-11--11-9-11--11-9-11-12-12-9----------------------------| x2
A|---9---9--9-9---9--9-9---9--9-9--9--9--9----------------------------| 
E|--------------------------------------------------------------------| 


Main Riff:
e|--------------------------------------------------------------------| 
B|--------------------------------------------------------------------| 
G|--------------------------------------------------------------------| 
D|--------------------------------------------------------------------| x2
A|---11--11-9-11--11-9-11--11-9-11-12-12-9-11-------------------------| 
E|---9---9--9-9---9--9-9---9--9-9--9--9--9-9--------------------------|

e|--------------------------------------------------------------------| 
B|--------------------------------------------------------------------| 
G|--------------------------------------------------------------------| 
D|---11--11-9-11--11-9-11--11-9-11-12-12-9----------------------------| x2
A|---9---9--9-9---9--9-9---9--9-9--9--9--9----------------------------| 
E|--------------------------------------------------------------------| 


Chorus:
e|--------------------------------------------------------------------| 
B|--------------------------------------------------------------------| 
G|--------------------------------------------------------------------| 
D|--------------------------------------------------------------------|
A|---10/14--14-12-14--14\12--12\11--11-9-11--11-9-11--11-9-11---------| 
E|---9-/12--12-12-12--12\10--10\9---9--9-9---9--9-9---9--9-9----------| 

2nd Time
e|--------------------------------------------------------------------| 
B|--------------------------------------------------------------------| 
G|--------------------------------------------------------------------| 
D|----------------------7~----14~-------------------------------------|
A|---11-9-11--11-9-11---7~----14~---11--11-9-11--11-9-11--11-9-11-----| 
E|---9--9-9---9--9-9----5~----12~---9---9--9-9---9--9-9---9--9-9------| 


Solo in C# minor Pentatonic (play these notes randomly)
e|----------------------------9-12-9----------------------------------| 
B|-----------------------9-12--------12-9-----------------------------| 
G|------------------9-11------------------11-9------------------------| 
D|-------------9-11----------------------------11-9-------------------|
A|--------9-11--------------------------------------11-9--------------| 
E|---9-12------------------------------------------------12-9---------| 
Suggest correction
comments
print report bad tab
9 comments total. Showing first comments.
0 reply
Pyrotechie 60 Nov 20, 2009 10:55 PM

Sounds good, but the verse riff includes both the main riff and the second half of the intro.

Not sure about the solo either, but to each his own.

0 reply
Shark17 418 Nov 20, 2009 11:22 PM

I forgot to include on part of the verse riff which is already up there. I'll do that now. Also what I've done for the solo is map out the notes. If you just play those notes randomly, it'll be in the right key. ie: (directly from the song)


e|---------------------------------------------------------------|
B|---------------------------------------------------------------|
G|--------------------------------------9--9-11~---11b12--11~----|
D|-9b10.5--11-11--9h11-11--9h11-11--9h11-11----------------------|
A|---------------------------------------------------------------|
E|---------------------------------------------------------------|


etc...

-1 reply
Medos 10 Nov 23, 2009 04:19 AM

Sounds similar to song but not correct if you look at youtube videos

guest
You may want to rate the tab now too:
select rating
Wanna post a correction for this tab? Suggest correction