Oops, an error
Loading. Please wait.

Elephants tab

version 1
version 1

Whole song

Interactive

133,091 views 147 this week
12 commentsread comments
1 2 3 4 5
x 32
add to favorites
×
Save as Personal and add changes to this tab that will be seen only by you. Learn more ›
×
You can save this tab as Personal to edit and correct it or add notes. All changes will be seen only by you. Learn more »
launch autoscroll
font size
0
reset
how to read this tab
guitar tuner
edit
Autoscroll
slow
fast
+/-
esc
set tempo
stop
About this tab version
Contains very specific, accurate notes. Was this info helpful? Yes No
Tuning - D G D G B d ( Open G)

[Intro] 
(Part 1)
d|--------------------------------------------------------------------| 
B|-----------------------3----------------------3---------------------| (x2)
G|-------------------3h5--------------------3h5-----------------------| slow 
D|---------2p0--3p0---------------2p0--3p0----------------------------|
G|---0--3p0---3----3--------0--3p0---3----3---------------------------| 
D|--------------------------------------------------------------------| 

d|--------------------------------------------------------------------| 
B|-----------------------3----------------------3---------------------| (x4)
G|-------------------3h5--------------------3h5-----------------------| fast
D|---------2p0--3p0---------------2p0--3p0----------------------------|
G|---0--3p0---3----3--------0--3p0---3----3---------------------------| 
D|--------------------------------------------------------------------| 

[Intro] 
(Part 2)
d|--------------------------------------------------------------------| 
B|--------------------------------------------------------------------| 
G|------------0-0--------------------0-0-------0-0-------0-0----------| 
D|--0----3p0--0-0--------0-0----3p0--0-0-------0-0-------0-0----------|
G|--0-3h5---5-----5p3-0--0-0-3h5---5-----5p3-0-----5p3-0-----5p3-0----| 
D|--------------------------------------------------------------------| 

d|--------------------------------------------------------------------| 
B|--------------------------------------------------------------------| 
G|--0-0x--0-0x--0x--0x--0x--0x----------------------------------------| 
D|--0-0x--0-0x--0x--0x--0x--0x----------------------------------------| (x2) 
G|--------------------------------------------------------------------| 
D|--------------------------------------------------------------------| 

[Intro] 
(Part 3)
d|--------------------------------------------------------------------| 
B|-----------------------3----------------------3---------------------| 
G|-------------------3h5--------------------3h5-----------------------|  
D|---------2p0--3p0---------------2p0--3p0----------------------------| (x2)
G|---0--3p0---3----3--------0--3p0---3----3---------------------------| 
D|--------------------------------------------------------------------| 

d|--------------------------------------------------------------------| 
B|-----------3/----------3/----------3/----------3/-------------------| 
G|-------3h5---------3-5---------3-5---------3-5----------------------| 
D|---0-0---------0-0---------0-0---------0-0--------------------------| 
G|---0-0---------0-0---------0-0---------0-0--------------------------| 
D|--------------------------------------------------------------------| 

[Main Riff]
d|--------------------------------------------------------------------| 
B|---3--6--8--11b-3--6--8--11b-3--6--8--6-6/8-8\6-6\3-3~--------------| 
G|---x--x--x--x---x--x--x--x---x--x--x--------------------------------| 
D|---0--0--0--0---0--0--0--0---0--0--0--------------------------------|
G|---0--0--0--0---0--0--0--0---0--0--0--------------------------------| 
D|--------------------------------------------------------------------|  

d|--------------------------------------------------------------------|
B|-------------------------6-6/8-8\6-6\3-3~-3//15-15-15-15-15~--------| 
G|---3/7-7\6-6\3-3~---------------------------------------------------| 
D|--------------------------------------------------------------------| (x2)
G|--------------------------------------------------------------------| 
D|--------------------------------------------------------------------| 

d|--------------------------------------------------------------------| 
B|----14-14-14-15-17-15~-------------14-14-17b-17-15-14~--------------| 
G|--------------------------------------------------------------------| 
D|--------------------------------------------------------------------|  
G|--------------------------------------------------------------------| 
D|--------------------------------------------------------------------| 

[Alternate Main Riff]
d|--------------------------------------------------------------------| 
B|-----3---6---8---11b---3-6---8---11b-----3---6-8---6-6/8-8/6-6/3-3--| 
G|---x---x---x---x-----x-----x---x-----x-x---x-----x------------------| 
D|---0---0---0---0-----0-----0---0-----0-0---0-----0------------------| (x2)
G|---0---0---0---0-----0-----0---0-----0-0---0-----0------------------| 
D|--------------------------------------------------------------------|

[Main Riff 2]
d|--------------------------------------------------------------------| 
B|--------------------------------------------------------------------| 
G|--0x--------------0x--------------0x--------------0x-0-----------0--| 
D|--0x--------------0x--------------0x--------------0x-0-----3-----0--| 
G|--0x-3x-5b6r5-3/9-0x-3x-5b6r5-3/9-0x-3x-5b6r5-3/9-0x-0-3-5---5-3-0--| 
D|--------------------------------------------------------------------|

[Chorus]
d|--------------------------------------------------------------------| 
B|---5--5--5-5--5/8--8-8/11--11-11------------------------------------| 
G|---5--5--5-5----------------------7-9-10-9-9/12-9~------------------| 
D|--------------------------------------------------------------------|
G|--------------------------------------------------------------------| 
D|--------------------------------------------------------------------|

d|--------------------------------------------------------------------| 
B|---10~-10-10-8/10-10--11--10--8--6~---------------------------------| 
G|------------------------------------7-9-10-9-9/12-9~----------------| 
D|--------------------------------------------------------------------| (x2)
G|--------------------------------------------------------------------| 
D|--------------------------------------------------------------------|

d|--------------------------------------------------------------------| 
B|---5~--5--5-5--5-x--3~--3--3-3--3--3--------------------------------| 
G|---5~--5--5-5--5-x--3~--3--3-3--3--3--------------------------------| 
D|---x~--x--x-x--x-x--x~--x--x-x--x--x--------------------------------| 
G|---5~--5--5-5--5-x--3~--3--3-3--3--3--9--10\9--10\9-----------------| 
D|--------------------------------------7--8-\7--8-\7-----------------| 

[Outro]
d|--------------------------------------------------------------------| 
B|-3--6--8--11b-3--6--8--11b-3--6--8--11b-3-6-8-6-------------------3-| 
G|-x--x--x--x---x--x--x--x---x--x--x--x---x-x-x-x---------------3h5---| 
D|-0--0--0--0---0--0--0--0---0--0--0--0---0-0-0-0------2p0-3p0--------| (slow) 
G|------------------------------------------------0-3p0---3---3-------| 
D|--------------------------------------------------------------------|

d|--------------------------------------------------------------------| 
B|-----------------------3----------------------3---------------------| 
G|-------------------3h5--------------------3h5-----------------------| (fast)
D|---------2p0--3p0---------------2p0--3p0----------------------------|
G|---0--3p0---3----3--------0--3p0---3----3---------------------------| 
D|--------------------------------------------------------------------|


************************************

| h  Hammer-on
| p  Pull-off
| x  Dead note
| /  Slide up
| b  Bend
| \  Slide down
| ~  Vibrato
| r  Release


************************************

            
            
Suggest correction
Creating personal tab
Creating personal tab
You can edit any tab online and save it as your Personal.

You can edit, replace or remove any tab part or add personal notes – all changes will be seen only by you.

Personal tabs can be accessed anytime from any device, even offline.
Learn more »
comments
print report bad tab
12 comments total. Showing first comments.
+1 reply
chickenscratch 10 Nov 22, 2009 07:23 AM

Sounds good but I find the riff easier to play when tuned down a whole step like this:

|---------------------------------|---------------------------------||
A||----------------------------3-5--|---------------------------3-5---||
F||*--2---------------------5-------|--2---------------------5-------*||
C||*--2-------4p-2---5--2-----------|--2-------4p-2---5--2-----------*||
G||---0--3p-0------3------3---------|--0--3p-0------3------3----------||
D||---------------------------------|---------------------------------||

+2 reply
darklorddaz 10 Dec 14, 2009 01:06 PM

Good stuff. One tiny thing, that you can take or leave. At the end of the opening riff, I find it easier to slide the 3 on the G up to 5, then hit 3 on the B

Cheers for the tab!

+1 reply
foofighters4eva 10 Dec 15, 2009 10:14 AM

someone on youtube plays this in open g, nd from looking at their live vids it looks like they play this in open g. not sure but ill have a go at it in that

guest
You may want to rate the tab now too:
select rating
Wanna post a correction for this tab? Suggest correction