Oops, an error
Loading. Please wait.

Gunman Bass Tab

version 1
version 1

Whole song

Interactive

13,965 views 6 this week
2 commentsread comments
1 2 3 4 5
accurate
x 6
add to favorites
launch autoscroll
font size
0
reset
guitar tuner
Tab Pro tools
  • play this tab
  • loop segment
  • change instrument
  • show fretboard
  • metronome
×
Best way to learn
"Gunman"
Autoscroll
slow
fast
+/-
esc
set tempo
stop
Contributor
Difficulty
Tuning
intermediate
D A D G B E
G|----------------------------------------------|
D|----------------------------------------------|
A|----5/7---3h5p3p0----------5/7---3h5p3p0------|
D|3-0-----0---------5-0--3-0-----0---------5-0--|

G|--------------------------------------------|
D|--------------------------------------------|
A|----5/7---3h5p3p0----------5/7---3h5p3-3p5--|
D|3-0-----0---------5-0--3-0-----0------------|

Verse:
G|-----------------------|
D|-----------------------|
A|----5/7---3h5p3p0------|x20
D|3-0-----0---------5-0--|

Chorus:
G|-------------------------------------------------------|
D|-------------------------------------------------------|
A|5~----4~----7~----2~------1~---3--4--------------------|
D|-------------------------------------5~----7~----2--3--|

Pre-solo:
G|---------------------------------------------|
D|------------------------------------3--------|
A|----5/7---3h5p3p0----------5/7---3h5--5-5p3--|
D|3-0-----0---------5-0--3-0-----0-------------|

Solo:
G|-----------------------|
D|-----------------------|
A|----5/7---3h5p3p0------|x8
D|3-0-----0---------5-0--|

Verse:
G|-----------------------|
D|-----------------------|
A|----5/7---3h5p3p0------|x20
D|3-0-----0---------5-0--|

Chorus:
G|-------------------------------------------------------|
D|-------------------------------------------------------|
A|5~----4~----7~----2~------1~---3--4--------------------|
D|-------------------------------------5~----7~----2--3--|

Bridge:
rest (02:57 - 03:12)
G|------------|
D|------------|
A|3h5p2--3h5--|
D|------------|

Verse:
G|-----------------------|
D|-----------------------|
A|----5/7---3h5p3p0------|x20
D|3-0-----0---------5-0--|

Chorus:
G|-------------------------------------------------------|
D|-------------------------------------------------------|
A|5~----4~----7~----2~------1~---3--4--------------------|
E|-------------------------------------5~----7~----2--3--|

Outro:
G|--------------------------------------------|
D|--------------------------------------------|
A|----5/7---3h5p3p0----------5/7---3h5p2-3h5--|
D|3-0-----0---------5-0--3-0-----0------------|

G|------------------------------------------|
D|------------------------------------------|
A|----5/7---3h5-7p5p3------5/7---3h5p2-3h5--|
D|3-0-----0------------3-0-----0------------|

G|------------------------------------------|
D|------------------------------------------|
A|----5/7---3h5-7p5p3------5/7---3h5p2------|
D|3-0-----0------------3-0-----0------------|
comments
print report bad tab
2 comments total.
0 reply
13Kelly13 wrote on March 17 2011, 12:09 pm

Definately better than 3 stars. It could probably be tabbed better but the notes are right, no doubt about that.

0 reply
Hethra wrote on February 22 2014, 05:00 pm

A great tab, I just question whether or not the 2nd half of the chorus is all right. Playing along with the track, the 3-4 on A and the 5 on E sound better played as 4-5 on A down to 6 on E. That's me though, try as I might I can't hear it on the recording. Other than, awesome stuff.

I want to post or [tab]
guest
You may want to rate the tab now too:
select rating
Please do not post tabs as comments. Select "correction" instead!