Oops, an error
Loading. Please wait.

Gunman Tab

version 1
version 1

Intro

Whole song

Interactive

57,702 views 81 this week
9 commentsread comments
1 2 3 4 5
excellent!
x 15
add to favorites
launch autoscroll
font size
0
reset
how to read this tab
guitar tuner
Tab Pro tools
  • play this tab
  • loop segment
  • change instrument
  • show fretboard
  • metronome
×
Best way to learn
"Gunman"
Autoscroll
slow
fast
+/-
esc
set tempo
stop
Contributor
Difficulty
Tuning
novice
D A D G B E
Them Crooked Vultures - Gunman

Tabbed By: Mark DiFranco


Tuning - D A D G B e


Intro:
e|--------------------------------------------------------------------| 
B|--------------------------------------------------------------------| 
G|--------------------------------------------------------------------| 
D|--------------------------------------------------------------------|
A|--12-12--8-8--5-5--------3h5-2---3h5-----5/7---3h5p3p0--------5/7---| 
D|-------------------6-6---------------3-0-----0--------3-0-3-0-----0-| 

e|--------------------------------------------------------------------| 
B|--------------------------------------------------------------------| 
G|--------------------------------------------------------------------| 
D|--------------------------------------------------------------------|
A|--3h5p3p0--------5/7---3h5p3p0--------5/7---3h5-2--3h5--------------| 
D|---------3-0-3-0-----0--------3-0-3-0-----0-----------3-0-3-0-------| 


Main Riff:
e|--------------------------------------------------------------------| 
B|--------------------------------------------------------------------| 
G|--------------------------------------------------------------------| 
D|--------------------------------------------------------------------|
A|--3h5p3p0--------5/7---3h5p3p0--------5/7---3h5p3p0--------5/7------| 
D|---------3-0-3-0-----0--------3-0-3-0-----0--------3-0-3-0-----0----| 


Chorus:
e|--------------------------------------------------------------------| 
B|--------------------------------------------------------------------| 
G|--------------------------------------------------------------------| 
D|-12--12-12--11--11-11--/14-14--15--9~--9--8--8-8--8-10-10-12\6~-----|
A|--------------------------------------------------------------------| 
D|--------------------------------------------------------------------| 

e|--------------------------------------------------------------------| 
B|--------------------------------------------------------------------| 
G|--------------------------------------------------------------------| 
D|-6--7~---2--3-------------------------------------------------------|
A|--------------------------------------------------------------------| 
D|--------------------------------------------------------------------|

Riff before Solo:
e|--------------------------------------------------------------------| 
B|--------------------------------------------------------------------| 
G|--------------------------------------------------------------------| 
D|---------------3----------------------------------------------------|
A|----------3h5p3--5p3p0----5/7---------------------------------------| 
D|--3-0-3-0-------------3-0-------------------------------------------|

Solo:
e|--------------------------------------------------------------------| 
B|-15~-15-17~-17h18-15h17~--17/20-17~--15h17h18-15h17h18-15h17h18-17~-| 
G|--------------------------------------------------------------------| 
D|--------------------------------------------------------------------|
A|--------------------------------------------------------------------| 
D|--------------------------------------------------------------------|

e|--------------------------------------------------------------------| 
B|--17h18h20-17h18h20-17h18h20-18~--18/10/15-13~--13/20-17~-----------| 
G|--------------------------------------------------------------------| 
D|--------------------------------------------------------------------|
A|--------------------------------------------------------------------| 
D|--------------------------------------------------------------------|
comments
print report bad tab
9 comments total. Showing first comments.
+1 reply
darcknight49 wrote on November 9 2009, 06:51 pm

I think this is in Drop D.

0 reply
Shark17 wrote on November 9 2009, 09:53 pm

Yeah you're right. I also changed the 1 to a 2. Sounds much better now.

0 reply
kozine wrote on November 20 2009, 12:39 pm

On the intro, where it's open on the A string twice it's actually 6th fret on the E string which is tuned to drop D.

I want to post or [tab]
guest
You may want to rate the tab now too:
select rating
Please do not post tabs as comments. Select "correction" instead!