Oops, an error
Loading. Please wait.

Highway 1 Tab

2,754 views 1 this week
no commentswrite comment
1 2 3 4 5
accurate
x 4
add to favorites
launch autoscroll
font size
0
reset
how to read this tab
guitar tuner
Autoscroll
slow
fast
+/-
esc
set tempo
stop
Help us to improve Ultimate-Guitar.com Take our survey!
×
Author
Difficulty
Tuning
advanced
D G D G B D
Them Crooked Vultures - Hwy 1

Tabbed By: Mark DiFranco

Tuning - D G D G B d (Open G)

Played on a Mandolin, but it can also be played on guitar. This is a work in 
progress, and I welcome any suggestions or ideas.

Intro (some combination of these notes):
d|--------------------------------------------------------------------|
B|---8-10-11-13-15-------17b-15---14h15p14-12~------------------------|
G|--------------------------------------------------------------------|
D|--------------------------------------------------------------------|
G|--------------------------------------------------------------------|
D|--------------------------------------------------------------------|


Main Riff:
d|--------------------------------------------------------------------|
B|--------------------------------------------------------------------|
G|--------------------------------------------------------------------|
D|---/5h7-7-7-7-7-7-7-7-5p3p0-3h5---/5h7-7-7-7-7-7-7-7-5p3p0-5p3p0----|
G|---------------------------5------------------------------5-----5---|
D|--------------------------------------------------------------------|

d|--------------------------------------------------------------------|
B|--------------------------------------------------------------------|
G|--------------------------------------------------------------------|
D|---/5h7-7-7-7-7-7-7-7-5p3p0-3h5---/5h7-7-7-7-7-7-7-7-5p3p0--0-------|
G|---------------------------5------------------------------5-0-------|
D|--------------------------------------------------------------------|


Other Riff:
d|--------------------------------------------------------------------|
B|--------------------------------------------------------------------|
G|--------------------------------------------------------------------|
D|---------0-3h5-------0-3h5-------0-3h5-------0-3h5------------------|
G|---0-3h5-------0-3h5-------0-3h5-------0-3h5-------0-0-0-0-0-0------|
D|--------------------------------------------------------------------|

d|--------------------------------------------------------------------|
B|--------------------------------------------------------------------|
G|--------------------------------------------------------------------|
D|---------0-3h5-------0-3h5-------0-3h5-------0-3h5------------------|
G|---0-3h5-------0-3h5-------0-3h5-------0-3h5-------0-0-0-0-0-0-0-0--|
D|--------------------------------------------------------------------|
Suggest correction
comments
print report bad tab
guest
You may want to rate the tab now too:
select rating
Wanna post a correction for this tab? Suggest correction