Oops, an error
Loading. Please wait.

Mind Eraser No Chaser Bass Tab

version 1
version 1

Whole song

Interactive

14,338 views 12 this week
no commentswrite comment
1 2 3 4 5
accurate
x 5
add to favorites
launch autoscroll
font size
0
reset
guitar tuner
Tab Pro tools
  • play this tab
  • loop segment
  • change instrument
  • show fretboard
  • metronome
×
Best way to learn
"Mind Eraser No Chaser"
Autoscroll
slow
fast
+/-
esc
set tempo
stop
Contributor
Difficulty
intermediate
Mind Eraser, No Chaser - THEM CROOKED VULTURES

Great bass playing by John Paul Jones here.

1) Starts with
G|-------------|
D|-------------|
A|-------------|
E|-5555--------|

Bass joins the riff.
2) First couple of times
G|-------------|
D|---------4---|
A|-3-4-3-4-----|
E|-------------|

3) verse
G|-----------------------|
D|---------4-------------|
A|-3-4-3-4---------------|
E|-----------2----55555--|

4) chorus
G|------------------------------------|
D|------------------------------------|
A|------------------------------------|
E|-2222224542022222-5555555787878753--|

G|-----------------------------------|
D|-----------------------------------|
A|-----------------------------------|
E|-2222224542022222-555557788887755--|

G|------------------------------------|
D|------------------------------------|
A|------------------------------------| x2
E|-2222224542022222-5555555787878753--|

5) chorus pt2
G|----------------------------|
D|----------------------------|
A|------------------109-------|
E|-22225555888888888---00-32--|
10, not 1 and 0

G|---------------------------------|
D|---------------------------------|
A|--------------------------9999\--|
E|-2222555588888888811111111-------|
11, not 1

G|--------------------------------------|
D|--------------------------------------|
A|--------------------------------------|
E|-22224245555757888888888888888/-------|

Continues with one of the above three.

Starts verse again with (1), then (3)

Chorus (4) and (5)

6) Bridge
Can't make it out completely but should be something like...
G|---------------------|
D|---------------------|
A|---------------------|
E|-5555333322222-------|

G|---------------------|
D|---------------------|
A|---------------------|
E|-5585335322222222----|

Continues with chorus pt 2 (5)
Ends with verse (3)
comments
print report bad tab
I want to post or [tab]
guest
You may want to rate the tab now too:
select rating
Please do not post tabs as comments. Select "correction" instead!