Oops, an error
Loading. Please wait.

Mind Eraser No Chaser Tab

version 1
version 1

Whole song

Interactive

14,250 views 1 this week
3 commentsread comments
1 2 3 4 5
worth learning
x 6
add to favorites
launch autoscroll
font size
0
reset
how to read this tab
guitar tuner
Tab Pro tools
  • play this tab
  • loop segment
  • change instrument
  • show fretboard
  • metronome
×
Best way to learn
"Mind Eraser No Chaser"
Autoscroll
slow
fast
+/-
esc
set tempo
stop
Contributor
Tuning: Standard


Intro/Verse:

|-----------------------------------------------------------|
|-----------------------------------------------------------|
|-----------------------------------------------------------|
|-------------4--2-----<5>---7------------------------------|
|---3h4h3h4------------<5>---7------------------------------|
|----------------------<5>---5------------------------------|

No idea how to play the solo, so we'll just skip over that for now.

Chorus:
(Rapidly pick this part, don't feel like typing out every note)
|-----------------------------------------------------------|
|-----------------------------------------------------------|
|-----------------------------------------------------------|
|-----------------------------------------------------------|
|---9---12--------------------------------------------------|
|-----------------------------------------------------------|

Part right after the chorus: (again, pick rapidly, listen to song for length, etc.)

|-----------------------------------------------------------|
|-----------------------------------------------------------|
|-----------------------------------------------------------|
|-----------------------------------7-----------7-----------|
|---99999999-7777777-6666666--6-6h7---6---6-6h7-------------|
|-----------------------------------------------------------|

That part towards the end is a little awkward, but listen for it and you'll get it down.


And that's basically it. I think there's a little filler part between the chorus and 
post-chorus bit, but I haven't figured it out (unless it is what I put up there). Just 
to the song for the arrangement and be absolutely liberal with a wah pedal and you're set!
comments
print report bad tab
3 comments total.
-1 reply
Shark17 wrote on October 28 2009, 10:29 pm

Yeah this is exactly what I got too. Although on the intro I think he plays the power chord on the 5th fret more than once.

0 reply
Shark17 wrote on November 2 2009, 08:54 pm

After listening to the studio version I hear:

|-----------------------------------------------------------|
|-----------------------------------------------------------|
|-----------------------------------------------------------|
|-------------4--------------7-7-7-7------------------------|
|---3h4h3h4------------------7-7-7-7------------------------|
|----------------2--------5-5-5-5------------------------|

and sometimes

|-----------------------------------------------------------|
|-----------------------------------------------------------|
|-----------------------------------------------------------|
|-------------4--------------7-7-7-7------------------------|
|---3h4h3h4------------------7-7-7-7------------------------|
|----------------2-----2/5---5-5-5-5------------------------|

0 reply
ledzep426 wrote on October 31 2015, 02:48 am

didn't like this contribution

I want to post or [tab]
guest
You may want to rate the tab now too:
select rating
Please do not post tabs as comments. Select "correction" instead!