Oops, an error
Loading. Please wait.

Mind Eraser No Chaser Tab

version 5
version 5

Whole song

Interactive

27,280 views 45 this week
4 commentsread comments
1 2 3 4 5
x 14
add to favorites
launch autoscroll
font size
0
reset
how to read this tab
guitar tuner
×
Best way to learn
"Mind Eraser No Chaser"
Autoscroll
slow
fast
+/-
esc
set tempo
stop
Difficulty
intermediate
[Intro]
 With Wah on.
(Guitar 1)
e|----------------------------------------------|
B|----------------------------------------------|
G|----------------------------------------------|
D|--x-x-x-x-x-----------4-----------------------|
A|--x-x-x-x-x--3-4-3-4------7*------------------|
E|--x-x-x-x-x-------------2---------------------| (x4) (without the first bit)

(Guitars 2 and 3)
e|----------------------------------------------|
B|---------------------------------5-5-5-5-5----|
G|---------------------------------6-6-6-6-6----|
D|---------------------------------7-7-7-7-7----|
A|---------------------------------7-7-7-7-7----|
E|---------------------------------5-5-5-5-5----| (x4)

[Solo]
(Guitar 1)
e|----------------------------------|
B|----------------------------------|
G|-------------2--------------------|
D|----------2----4-------4----------|
A|-------2-5-4-----2----------------|
E|---2h5-------------5--------------|

e|-2p0----2p0-----2------------------|
B|----1b2-----1b2---1b2----------0h2-|
G|----------------------2-4-2-4-2----|
D|-------------------------4---------|
A|-----------------------------------|
E|-----------------------------------|

e|-----------------------------------|
B|-----7b9---------------------------|
G|------------------2h4p2h4p2--------|
D|------------------------------4--2-|
A|-----------------------------------|
E|-----------------------------------|

e|----------------------------------|
B|----------------------------------|
G|------2---2-4p2-----2-------------|
D|----4---4-------4------4b6r4------|
A|----------------------------------|
E|----------------------------------|

(Guitar 2)
e|---------------------------------|
B|---------------------------------|
G|---------------------------------|
D|-----------4---------------------|
A|--3-4-3-4-------7*---------------|
E|-------------2-------------------|(x4)

(Guitar 3)
e|---------------------------------|
B|--------------------5-5-5-5-5----|
G|--------------------6-6-6-6-6----|
D|-----------4--------7-7-7-7-7----|
A|--3-4-3-4-----------7-7-7-7-7----|
E|-------------2--5---5-5-5-5-5----| (x4)

[Verse]
(Guitar 1)
e|-------------------------------------------------2p0---------|
B|--------------------5-5-5-5-5-------------------------1b2----|
G|--------------------6-6-6-6-6--------------------------------|
D|-----------4--------7-7-7-7-7--------------4---------------4-|
A|--3-4-3-4-----------7-7-7-7-7------3-4-3-4-------------------|
E|-------------2--5---5-5-5-5-5----------------2---------------|

(Guitar 2)
e|---------------------------------|
B|--------------------5-5-5-5-5----|
G|--------------------6-6-6-6-6----|
D|-----------4--------7-7-7-7-7----|
A|--3-4-3-4-----------7-7-7-7-7----|
E|-------------2--5---5-5-5-5-5----|(x2)

(Guitars 1 and 2)
e|-------------------------------------------------------------|
B|----------------------5-5-5-5-5--------------------5-5-5-5-5-|
G|----------------------6-6-6-6-6--------------------6-6-6-6-6-|
D|-----------4----------7-7-7-7-7--------------4-----7-7-7-7-7-|
A|--3-4-3-4-------------7-7-7-7-7------3-4-3-4-------7-7-7-7-7-|
E|-------------2--4/5---5-5-5-5-5----------------2---5-5-5-5-5-|

[Pre-Chorus 1]
(Guitar 1)
e|---------------------------------------------------------------------------|
B|-------------------------------------------10--------10---------10--9---7--|
G|------9----------9---------9--8--------------------------------------------|
D|----------------------------------11---7--7---7--7--7---7--7--7---7---7----|
A|-9--9---9--9--9---9--9--9---9--9-------------------------------------------|
E|---------------------------------------------------------------------------| (x4)

(Guitar 2)
e|---------------------------------------------------------------------------|
B|---------------------------------------------------------------------------|
G|---------------------------------------------------------------------------|
D|---------------------------------------------------------------------------|
A|-9-9-9-9-9-9-9-9-9-9--9-11-12-11-9---12-12-12-12-12-12-12/15-12-14b-14-12--|
E|--------------------12-------------12--------------------------------------| (x4)

[Chorus 1]
(Guitar 1)
e|--------------------------------------------------------------|
B|--------------------------------------------------------------|
G|-------9---------9----------8---------8---------8---------8---|
D|--------------------------------------------------------------|
A|--9--9---9--7--7---7---6--6---6--6--6---6--6--6---6--6--6---6-|
E|--------------------------------------------------------------|

(Guitar 2)
e|--------------------------------------------------------------|
B|--------------------------------------------------------------|
G|----------------------------8---------8---------8---------8---|
D|-------2---------2--------------------------------------------|
A|-----------------------6--6---6--6--6---6--6--6---6--6--6---6-|
E|--2--2---2--0--0---0------------------------------------------|

(Guitar 3)
e|-------------------------------------------------------------|
B|-------------------------------------------------------------|
G|------------------------------------------4b6------4b6--2----|
D|-------------------------------------------------------------|
A|-------------------------------------------------------------|
E|-------------------------------------------------------------|

(Guitar 1)
e|--------------------------------------------|
B|--------------------------------------------|
G|-------9---------9---------9---------9------|
D|--------------------------------------------|
A|--9--9---9--9--9---9--7--7---7--7--7---7----|
E|--------------------------------------------|

e|--------------------------------------------|
B|--------------------------------------------|
G|-------8---------8---------8---------8------|
D|--------------------------------------------|
A|--6--6---6--6--6---6--6--6---6--6--6---6----|
E|--------------------------------------------| whole thing (x4)

(Guitar 2)
e|--------------------------------------------|
B|--------------------------------------------|
G|--------------------------------------------|
D|------2---------2---------2---------2-------|
A|--------------------------------------------|
E|-2--2---2--2--2---2--0--0---0--0--0---0-----|

e|--------------------------------------------|
B|--------------------------------------------|
G|-------8---------8---------8---------8------|
D|--------------------------------------------|
A|--6--6---6--6--6---6--6--6---6--6--6---6----|
E|--------------------------------------------| whole thing (x4)

[Post-Chorus]
(Guitar 2)
e|----------------------------------|
B|----------------------------------|
G|----------------------------------|
D|-----------4----------------------|
A|--3-4-3-4-------7*----------------|
E|-------------2--------------------|(x4)

(Guitar 3)
e|----------------------------------|
B|--------------------5-5-5-5-5-----|
G|--------------------6-6-6-6-6-----|
D|-----------4--------7-7-7-7-7-----|
A|--3-4-3-4-----------7-7-7-7-7-----|
E|-------------2--5---5-5-5-5-5-----| (x4)

(Guitar 1)
e|----------------------------------|
B|----------------------------------|
G|--------------------2--4--4b6-----|
D|------------------4---------------|
A|----------------------------------|
E|----------------------------------|

e|------------2p0-------------------|
B|-------------------------7b9------|
G|---------------4b6----------------|
D|----------------------------------|
A|----------------------------------|
E|----------------------------------|

e|-----------------------------------|
B|-----------------------------------|
G|-----------2--------4/5\4-2--4-2b4-|
D|---------4---4-------------4-------|
A|------------------x----------------|
E|---------------x-------------------|

e|----------------------------------|
B|----------------------------------|
G|----------------------------------|
D|--------4-------------------------|
A|--------0-------------------------|
E|----------------------------------|

[Bridge]
(Guitar 1)
e|----------------------------------------------------------|
B|----------------------------------------------------------|
G|---------9-----------9---------9-----------9----------9---|
D|--10--10---10--7--7----7------------10--10---10--7--7---7-|
A|--------------------------9--9---9------------------------|
E|----------------------------------------------------------|

(Guitar 2)
e|----------------------------------------------------------|
B|----------------------------------------------------------|
G|----------------------------------------------------------|
D|-------2---------2----4--4--2--4-------2---------2--------|
A|--3--3---3--0--0---0--------------3--3---3--0--0---0------|
E|----------------------------------------------------------|

(Guitar 1)
e|----------------------------------------------------------|
B|----------------------------------------------------------|
G|------9----8----10---------9----------9----------9--------|
D|--------------------10--10---10--7--7---7-----------------|
A|--9--9---9---9------------------------------9--9---9------|
E|----------------------------------------------------------|

(Guitar 2)
e|----------------------------------------------------------|
B|----------------------------------------------------------|
G|----------------------------------------------------------|
D|--4--4--2--4--2--4----------2---------2------4--4--2--4---|
A|--------------------3--3--3---3--0--0---0-----------------|
E|----------------------------------------------------------|

(Guitar 1)
e|-----------------------------------------------|
B|-----------------------------------------------|
G|---------9----------9-----------9---------9----|
D|--10--10---10--7--7---7------------------------|
A|---------------------------9--9---9--7--7---7--|
E|-----------------------------------------------|

(Guitar 2)
e|-----------------------------------------------|
B|-----------------------------------------------|
G|------------------------------9---------9------|
D|-------2---------2-----------------------------|
A|--3--3---3--0--0---0-----9--9---9--7--7---7----|
E|-----------------------------------------------|

(Guitars 1 and 2)
e|-----------------------------------------------|
B|-----------------------------------------------|
G|-------8---------8---------8---------8---------|
D|-----------------------------------------------|
A|--6--6---6--6--6---6--6--6---6--6--6---6-------|
E|-----------------------------------------------|

(Guitar 3)
e|-----------------------------------------------|
B|-----------------------------------------------|
G|-----------------------------------4b6--2------|
D|-----------------------------------------------|
A|-----------------------------------------------|
E|-----------------------------------------------|

Now play the chorus again
but remember to play it 8 times instead of 4.

[Ending]
(Guitar 2)
e|----------------------------------|
B|----------------------------------|
G|----------------------------------|
D|-----------4----------------------|
A|--3-4-3-4-------7*----------------|
E|-------------2--------------------| (x4)

(Guitar 3)
e|----------------------------------|
B|--------------------5-5-5-5-5-----|
G|--------------------6-6-6-6-6-----|
D|-----------4--------7-7-7-7-7-----|
A|--3-4-3-4-----------7-7-7-7-7-----|
E|-------------2--5---5-5-5-5-5-----| (x4)

(Guitar 1)
(After the second time)
e|-2p0------------------------------|
B|----------------------------------|
G|------4b6-------------------------|
D|----------------------------------|
A|----------------------------------|
E|----------------------------------|

e|----------------------------------|
B|--------------------5-5-5-5-5-----|
G|--4b6r4--2p0--------6-6-6-6-6-----|
D|--------------------7-7-7-7-7-----|
A|--------------2b4---7-7-7-7-7-----|
E|--------------------5-5-5-5-5-----|

e|----------------------------------|
B|----------------------------------|
G|--------------------2-4-4b666-----|
D|-----------------4----------------|
A|-4-0-4----------------------------|
E|----------------------------------|


************************************

| x  Dead note
| *  Natural harmonic
| h  Hammer-on
| p  Pull-off
| b  Bend
| r  Release
| /  Slide up
| \  Slide down

************************************
Suggest correction
comments
print report bad tab
4 comments total. Showing first comments.
-1 reply
Barbaloot 31 May 31, 2010 05:49 AM

Only thing is that the Harmonic is on the D string, not the A

0 reply
KrystPL 10 Oct 03, 2010 05:51 AM

Great tab. Good job man!

0 reply
nosuchmanasmole 60 Apr 28, 2013 11:05 AM

would someone be able to gp this please ?

guest
You may want to rate the tab now too:
select rating
Wanna post a correction for this tab? Suggest correction