Oops, an error
Loading. Please wait.

New Fang Bass Tab

version 1
version 1

Whole song

Interactive

21,170 views 21 this week
1 commentread comment
1 2 3 4 5
accurate
x 12
add to favorites
launch autoscroll
font size
0
reset
guitar tuner
Autoscroll
slow
fast
+/-
esc
set tempo
stop
Help us to improve Ultimate-Guitar.com Take our survey!
×
Author
Difficulty
novice
G|-------|
D|-------|
A|-------|
E|3~--6--|

G|-----------------------------------|
D|-----------------------------------|
A|----7-5---7-5-------7-5------------|x4
E|7-7-----7-----7p5h7-----7-7-3-3-5--|

Verse:
G|-----------------------------------|
D|-----------------------------------|
A|----7-5---7-5-------7-5------------|x4
E|7-7-----7-----7p5h7-----7-7-3-3-5--|

Chorus:
G|--------------------------------------------|
D|5-5-----------------------------------------|
A|-------5-5----xx---7-7--5-----5------5-7h9--|
E|---------------------------7-----5-7--------|

G|---------------------------------------------|
D|5-5------------------------------------------|
A|-------5-5----xx---7-7----5---7-----------5--|
E|------------------------7---7----7-5--5-7----|

G|--------------------------------------------|
D|5-5---------475-----------------------------|
A|-------5-5-----75---------------------------|
E|-------------------5h7--7--7-5h7--7--5-7-9--|

G|--------------|
D|--------------|
A|-------5-5-/--|
E|3-3-----------|

Post-chorus:
G|------------------------------------------------------------------|
D|------------------------------------------------------------------|
A|----7-5---7-5-------7-5---------------7-5---7-5-------7-5---------|x2
E|7-7-----7-----7p5h7-----7-7-3-3-5-7-7-----7-----7p5h7-----7-7-3-5-|

verse:
G|-----------------------------------|
D|-----------------------------------|
A|----7-5---7-5-------7-5------------|x4
E|7-7-----7-----7p5h7-----7-7-3-3-5--|

Chorus:
G|--------------------------------------------|
D|5-5-----------------------------------------|
A|-------5-5----xx---7-7--5-----5------5-7h9--|
E|---------------------------7-----5-7--------|

G|---------------------------------------------|
D|5-5--------575-------------------------------|
A|-------5-5----75---7-7----5---7-----------5--|
E|------------------------7---7----7-5--5-7----|

G|--------------------------------------------|
D|5-5---------475-----------------------------|
A|-------5-5-----57---------------------------|
E|-------------------5h7--7--7-5h7--7--5-7-9--|

G|--------------|
D|5-5-----------|
A|-------5-5-/--|
E|--------------|

Middle-8/Bridge:
G|------------------------------------------------|
D|------------------------------------------------|
A|------------------------------------------------|x4
E|--7h9-9-9--7h9-9-9--7-9/12---7h9-9-9--7h9-9-0~--|

instrumental:
G|-----------------------------------|
D|-----------------------------------|
A|----7-5---7-5-------7-5------------|x4
E|7-7-----7-----7p5h7-----7-7-3-3-5--|

verse: - Time signature change from 4/4 to 15/16 *
G|---------------------------------|
D|---------------------------------|
A|----7-5---7-5-------7-5----------|x8
E|7-7-----7-----7p5h7-----7-7-3-5--|

Outro:
G|----------------------|
D|---------------575----|
A|75---75---75----- 75--|x8
E|--75---75---75--------|

*They do this in the introduction too, but it's noticeable. 
Suggest correction
What's this?
You can suggest a correction to this tab. Community and Mods will review your correction and vote to approve or reject it.
comments
print report bad tab
1 comment total.
0 reply
shibby_5404 11 wrote on July 8 2016, 01:59 am

G|-----------------------------------|
D|-----------------------------------|
A|----7-5---7-5-------7-5------------|x4
E|7-7-----7-----7p5h7-----5-5-3-3-6--|

guest
You may want to rate the tab now too:
select rating
Please do not post tabs as comments. Select "correction" instead!