Oops, an error
Loading. Please wait.

New Fang Tab

version 1
version 1

Whole song

Interactive

38,346 views 9 this week
5 commentsread comments
1 2 3 4 5
x 7
add to favorites
launch autoscroll
font size
0
reset
how to read this tab
guitar tuner
Autoscroll
slow
fast
+/-
esc
set tempo
stop
Help us to improve Ultimate-Guitar.com Take our survey!
×
Author
Difficulty
novice
Them Crooked Vultures - New Fang

Tabbed By: Mark DiFranco


Tuning - E A D G B e


Intro:
e|--------------------------------------------------------------------| 
B|--------------------------------------------------------------------| 
G|---------------9-7---9-7-----9-7---------7--------------------------| 
D|--x5~--x8-x9-9-9-7-9-9-7-9-9-9-7-7-7-5-5-7--------------------------|
A|--x5~--x8-x9-9-7-5-9-7-5-9-9-7-5-7-7-5-5-5--------------------------| 
E|--x3~--x6-x7-7-----7-----7-7-----5-5-3-3----------------------------| 

Slide Guitar:
e|--------------------------------------------------------------------| 
B|--10/12---10\7------------------------------------------------------| 
G|-----------------7/9-7\4--2-2/4-------------------------------------| 
D|--------------------------------------------------------------------|
A|--------------------------------------------------------------------| 
E|--------------------------------------------------------------------| 


Chorus Background Guitar:
e|--------------------------------------------------------------------| 
B|--------------------------------------------------------------------| 
G|--9-9-x---7-7-x--7\-------------------------------------------------| 
D|--9-9-x---7-7-x--7\---9-9-7--x--7-7-9-------------------------------|
A|--7-7-x---5-5-x--5\---9-9-7--x--7-7-9-------------------------------| 
E|----------------------7-7-5--x--5-5-7-------------------------------| 


Chorus Slide Guitar:
e|--------------------------------------------------------------------| 
B|--12\10/12---10\7/10--//10\-----------------------------------------| 
G|----------------------------/9-7---------7--------------------------| 
D|--------------------------------9-7--7-9---9------------------------|
A|--------------------------------------------------------------------| 
E|--------------------------------------------------------------------| 


Bridge:
e|--------------------------------------------------------------------| 
B|--------------------------------------------------------------------| 
G|--------------------------------------------------------------------| 
D|--------------------------------------------------------------------|
A|--------------------------------------------------------------------| 
E|--7h9-9-9--7h9-9-9--7-9/12---7h9-9-9--7h9-9-0~----------------------|

Bridge Slide Guitar:
e|--9~----9/10--9~------------//10\9~---------------------------------| 
B|------------------9\5~--3\2---------etc-----------------------------| 
G|--------------------------------------------------------------------| 
D|--------------------------------------------------------------------|
A|--------------------------------------------------------------------| 
E|--------------------------------------------------------------------|


Odd Rhythm Part After Bridge:
e|--------------------------------------------------------------------| 
B|--------------------------------------------------------------------| 
G|------9-7---9-7-----9-7-------------9-7---9-7-----9-7---------------| 
D|--9-9-9-7-9-9-7-9-9-9-7-7-7-5-5-9-9-9-7-9-9-7-9-9-9-7-7-7-5-5-------|
A|--9-9-7-5-9-7-5-9-9-7-5-7-7-5-5-9-9-7-5-9-7-5-9-9-7-5-7-7-5-5-------| 
E|--7-7-----7-----7-7-----5-5-3-3-7-7-----7-----7-7-----5-5-3-3-etc---| 

Outro:
e|--------------------------------------------------------------------| 
B|--------------------------------------------------------------------| 
G|--------------------------------------------------------------------| 
D|--9\-9\--------7p5----9\-9\--------7p5------------------------------|
A|--9\-9\--7p5-------7--9\-9\--7p5-------7----------------------------| 
E|--7\-7\------7--------7\-7\------7----------------------------------|

e|---------------------------------------------10-12b13.5-10-12-------| 
B|-12-12~-10-12-10----10-------------10b12brbr------------------12~---| 
G|-----------------11----11-9-----------------------------------------| 
D|----------------------------9~-7h9----------------------------------|
A|--------------------------------------------------------------------| 
E|--------------------------------------------------------------------|

e|--------------------------------------------------------------------| 
B|----10--------------------------------------------------------------| 
G|--11----------------------------------------------------------------| 
D|--------\\9b10-x----------------------------------------------------|
A|--------------------------------------------------------------------| 
E|--------------------------------------------------------------------|
Suggest correction
comments
print report bad tab
5 comments total. Showing first comments.
+2 reply
Fendurr 10 Nov 20, 2009 08:15 PM

I think this is a rather swell tab

0 reply
Shark17 418 Nov 20, 2009 08:52 PM

Why thank you.

0 reply
ImSiler99 94 Dec 06, 2009 02:35 AM

pretty good tab. verse is right. slide parts are right. chorus should be:

Chorus Background Guitar:
e|----------------------------------------------------|
B|----------------------------------------------------|
G|-------------7-7-xxxx--7\---------------------------|
D|--5-5-xxxx---7-7-xxxx--7\---9-x-9-x---x-9-9-9-7\----|
A|--5-5-xxxx---5-5-xxxx--5\---9-x-9-x---x-9-9-9-7\----|
E|--3-3-xxxx------------------7-x-7-x---x-7-7-7-5\----|

guest
You may want to rate the tab now too:
select rating
Wanna post a correction for this tab? Suggest correction