Oops, an error
Loading. Please wait.

New Fang Bass Tab

version 2
version 2

Whole song

Interactive

7,543 views 1 this week
no commentswrite comment
1 2 3 4 5
x 6
add to favorites
launch autoscroll
font size
0
reset
guitar tuner
Autoscroll
slow
fast
+/-
esc
set tempo
stop
Help us to improve Ultimate-Guitar.com Take our survey!
×
Author
-------------------------------------------------------------------------------
			     New Fang - Them crooked Vultures
-------------------------------------------------------------------------------

Tuning:Standard

After the Drum Intro come in with
G|---------------------------------------------------------------------------|
D|---------------------------------------------------------------------------|
A|-----1---------------------------------------------------------------------|
E|--3------------------------------------------------------------------------|

Main Riff/ Verse
G|---------------------------------------------------------------------------|
D|------2-0---2-0-----2-0----------------------------------------------------|
A|--2-2-----2-----202-----0-0-----1------------------------------------------|
E|----------------------------3-3--------------------------------------------|
Play this X8 (including the verse)

Chorus
G|---------------------------------------------------------------------------|
D|-----------------2---------------------------------------------------------|
A|-----------5-5----------0-2---2---2-0-2-2-0-2-5----------------------------|
E|--3-3----------------------------------------------------------------------|

G|-----------------------------------7---------------------------------------|
D|----------------2----7-7h8h9---9-9----9p8p7--------------------------------|
A|-----------5-5------------------------------9------------------------------|
E|--3-3----------------------------------------------------------------------|

G|---------------------------------------------------------------------------|
D|-----------------2h3h4-4---------------------------------------------------|
A|--10-10-----5-5------------0-2----2-0-2-0------0h2p0-----------------------|
E|-------------------------------------------2-2-------2---------------------|

G|---------------------------------------------------------------------------|
D|---------------------------------------------------------------------------|
A|-----------5-5/16\---------------------------------------------------------|
E|--3-3----------------------------------------------------------------------|

Next play the main riff X4 during the solo
but on the second time play it like this
Main riff 2
G|---------------------------------------------------------------------------|
D|-----2-0---2-0-----2-0-----------------------------------------------------|
A|-2-2-----2-----202-----0h2p0---1-------------------------------------------|
E|-----------------------------3---------------------------------------------|

Play the main riff X4 four the verse and then play the chorus again

Bridge
G|---------------------------------------------------------------------------|
D|----------------2----------------------------------------------------------|
A|-2h3h4-4-424-424----2h3h4-4-4242-------------------------------------------|
E|--------------------------------0------------------------------------------|
Play this X4

Now play the main riff four times but play the main riff 2 every other time like this-
main riff
main riff 2 
main riff
main riff2

For the last chorus play main riff 2 8 times

Outro
G|---------------------------------------------------------------------------|
D|--------------2p0----------------------------------------------------------|
A|-2---2---2p0------1p0------------------------------------------------------|
E|------------3--------------------------------------------------------------|
play this 8 times to finish up the song

Hope this tab was helpful. Just post any corrections or comments at the bottom. Enjoy!
Suggest correction
comments
print report bad tab
guest
You may want to rate the tab now too:
select rating
Wanna post a correction for this tab? Suggest correction