Oops, an error
Loading. Please wait.

New Fang tab

version 2
version 2

Whole song

Interactive

50,356 views 63 this week
no commentswrite comment
1 2 3 4 5
x 16
add to favorites
×
Save as Personal and add changes to this tab that will be seen only by you. Learn more ›
×
You can save this tab as Personal to edit and correct it or add notes. All changes will be seen only by you. Learn more »
launch autoscroll
font size
0
reset
how to read this tab
guitar tuner
edit
Autoscroll
slow
fast
+/-
esc
set tempo
stop
Them Crooked Vultures - 'New Fang'
From the Debut Album (2009)
Standard Tuning - Clean Slide Guitar & Distorted Fuzz Guitar
Tabbed By: jjhand


Watch the rhythms. Most of this song is in 4/4 time, but occasionally a 
1/2 beat is skipped making the second bar of the main riff 7/8 time. I
try to note this where applicable. Thanks to the 1st Tab version for some 
of the rhythm part. Please rate / comment.


Intro:             Main Riff:
e|-----------|     |--------------------------|-------------------------| 
B|-----------|     |--------------------------|-------------------------| 
G|-----------|     |-------9--7-----9--7------|----9--7-----------------| 
D|--5----x-8-|     |-9--9--9--7--9--9--7--9\7-|-9--9--7--7--7--5--5--8--|
A|--5----x-8-|     |-9--9--7--5--9--7--5--9\7-|-9--7--5--7--7--5--5--8--| 
E|--3----x-6-|     |-7--7--------7--------7\5-|-7--------5--5--3--3--6--| 


Clean Slide Guitar plays before lyrics begin:

   Part A
e|-------------------|------------------------| 
B|--10/12----10\7----|------------------------| Play this part 2x 
G|-------------------|-7/11-7\4~------7-4\2/4-| 
D|-------------------|------------2/4---------|
A|-------------------|------------------------| 
E|-------------------|------------------------|  

   Part B
e|-------------------|------------------------| 
B|--10/12----10\7----|-----10\5~--------------| Play this once, then
G|-------------------|-7/9------------7-4\2/4-| finish the intro with 
D|-------------------|------------2/4---------| Part A again 
A|-------------------|------------------------|   (Order is AABA)
E|-------------------|------------------------| 



Continue Main riff during Verse 1 Vocals





Chorus 

   Dist Guitar:
e|--------------------------|------------------------------| 
B|-8--8---------------------|------------------------------| 
G|-7--7---------7-7---------|------------------------------| 
D|-5--5--x-5/7--7-7---5b6r5-|---9-9---9-9-9-9-9---9--9\7---|
A|-------x------5-5---------|---9-9---9-9-9-9-9---9--9\7---| 
E|--------------------------|---7-7---7-7-7-7-7---7--7\5---| 
 |
 |Slide Guitar:  ( // means to hold the first note then slide)
e|--------------------------|------------------------------| 
B|--12\10/12--10\7/10---10\-|------------------------------| 
G|--------------------------|---9/11\9-7------------9//11--| 
D|--------------------------|-----------9--7//9------------|
A|--------------------------|------------------------------| 
E|--------------------------|------------------------------| 


   Dist Guitar:
e|--------------------------|------------------------------| 
B|-8--8---------------------|------------------------------| 
G|-7--7---------7-7---------|-------------------------7----| 
D|-5--5--x-5/7--7-7---5b6r5-|---9--9--9-9-----9-9--9--7----|
A|-------x------5-5---------|---9--9--9-9-----9-9--9-------| 
E|--------------------------|---7--7--7-7-----7-7--7-------| 

 Slide Guitar:
e|--------------------------|------------------------------| 
B|--12\10/12--10\7/10---10\-|--------------------10\\7-----| 
G|--------------------------|---9/11\9-7-------------------| 
D|--------------------------|-----------9--7//9------------|
A|--------------------------|------------------------------| 
E|--------------------------|------------------------------| 


   Dist Guitar:
e|--------------------------|------------------------------| 
B|-8--8---------------------|------------------------------| 
G|-7--7---------7-7---------|-------------------------7----| 
D|-5--5--x-5/7--7-7---5b6r5-|---9--9--9-9-----9-9--9--7----|
A|-------x------5-5---------|---9--9--9-9-----9-9--9-------| 
E|--------------------------|---7--7--7-7-----7-7--7-------| 

 

End Chorus, Dist Guitar:
e|-------------------------|---------------------------|------------------------|
B|-8--8--------------------|---------------------------|-8--8-------------------|
G|-7--7---------7--7-------|---------------------------|-7--7----------7--7-----|
D|-5--5--x-5/7--7--7--5b6r5|---9-9---9-9-----9-9---9\7-|-5--5--5-7-7---7--7-----|
A|-------x------5--5-------|---9-9---9-9-----9-9---9\7-|---------------5--5-----|
E|-------------------------|---7-7---7-7-----7-7---7\5-|---------------------9\-|
 
 |Slide Guitar:
e|-------------------------|----------------------------|------------------------|
B|--12\10/12--10\7/10---10\|----------------------------|--12\10/12--10\7/10-10\-|
G|-------------------------|---9/11\9-7-------9/11\7/9--|------------------------|
D|-------------------------|-----------9--/7------------|------------------------|
A|-------------------------|----------------------------|------------------------|
E|-------------------------|----------------------------|------------------------|





Wah Solo Before Verse 2: (one bar is 1/2 beat shorter - I marked it 7/8)

  4/4 
e|--------------------|---------------------|----------------------| 
B|--------------------|---------------------|----------------------| 
G|--------------------|---------------------|----------------------| 
D|--------------------|-----2~--------------|------0h2h4~----2p0---|
A|-2---0-2--4-5-4h5p4-|-2----------4~---5p4-|-2-0h2--------------2-| 
E|--------------------|---------------------|----------------------|

7/8                  4/4     + start rocking wah pedal
e|-----------------|-------------------|-----------------|---------------------| 
B|-----------------|------------8b10~--|---8b10r8--------|---------------7b8---| 
G|-----------------|---------7---------|------------7~---|----7--9p7--7--------| 
D|-----------------|-------------------|-----------------|-9--------9---9----9-|
A|-2---------2---2-|-2-----------------|-----------------|---------------------| 
E|------2b-----2---|-------------------|-----------------|---------------------|

                       Vocals Begin:
e|-------------------|------------------------| 
B|-------------------|-12b15~~~~r12-----------| 
G|-------------------|------------------------| 
D|-7--6b7-6b7r6--6---|------------------------|
A|-------------------|------------------------| 
E|-------------------|------------------------| 




Play Main Riff with Verse 2 Lyrics

Repeat Chorus Again




Bridge:
   Dist Guitar
e|-----------------------------|----------------------------| 
B|-----------------------------|----------------------------| 
G|-----------------------------|----------------------------| 
D|-----------------------------|----------------------------|
A|---------------------------7-|----------------------------| 
E|-7/9-9---9---9\7-9---9-7h9---|-7/9-9---7/9-9p7-9---0------|
 |
 |Slide Guitar:
e|-10\9~-----------------------|-10\9~----------------------| 
B|-10\9~-----------------------|-10\9~----------------9/11--| 
G|-----------------------------|----------------------9/11--| 
D|-----------------------------|----------------------------|
A|-----------------------------|----------------------------| 
E|-----------------------------|----------------------------|

   Dist Guitar
e|-----------------------------|---------------------------| 
B|-----------------------------|---------------------------| 
G|-----------------------------|---------------------------| 
D|-----------------------------|---------------------------|
A|-10~--9~-\7--9--7---------7--|---------7-----------------| 
E|--------------------9-7h9----|-7h9-9-----9p7-9---0-------|
 |
 |Slide Guitar:
e|-----------------------------|-10\9~---------------------| 
B|-9---------7--5--------------|-10\9~---------------9/11--| 
G|-9---------8--6--------------|---------------------9/11--| 
D|-----------------------------|---------------------------|
A|-----------------------------|---------------------------| 
E|-----------------------------|---------------------------|

   Dist Guitar
e|-----------------------------|----------------------------| 
B|-----------------------------|----------------------------| 
G|-----------------------------|----------------------------| 
D|-----------------------------|----------------------------|
A|---------------7-----------7-|----------------------------| 
E|-7h9-9---7h9-9---9---9-7h9---|-7h9-9---7h9-9p7-9---0~-----|
 |
 |Slide Guitar:
e|-----------------------------|-10\9~----------------------| 
B|-9---------7--5--------------|-10\9~----------------9/11--| 
G|-9---------8--6--------------|----------------------9/11--| 
D|-----------------------------|----------------------------|
A|-----------------------------|----------------------------| 
E|-----------------------------|----------------------------|

   Dist Guitar
e|---------------------------------|-------------------------------| 
B|---------------------------------|-------------------------------| 
G|---------------------------------|-------------------------------| 
D|---------------9-11--------------|-------------------------------|
A|---------7-9/11-----9\7-9h10p9-7-|-------------------------------| 
E|-7h9-9---------------------------|-7h9-9---7h9-9---7h9-7h9-7h9-9-|
 |
 |Slide Guitar:
e|---------------------------------|-10\9~----------------9/11--| 
B|-9-----------7--5----------------|-10\9~----------------9/12--| 
G|-9-----------8--6----------------|----------------------------| 
D|---------------------------------|----------------------------|
A|---------------------------------|----------------------------| 
E|---------------------------------|----------------------------|





Play Main riff once, then play this

   4/4                       7/8                 
e|-------------------------|---------------------|
B|-------------------------|---------------------|
G|-------9--7-----9--7-----|----9--7-------------|
D|-9--9--9--7--9--9--7-9\7-|-9--9--7--7--7--5--8-|
A|-9--9--7--5--9--7--5-9\7-|-9--7--5--7--7--5--8-|
E|-7--7--------7-------7\5-|-7--------5--5--3--6-|

After previous bar, Main Riff returns to 4/4 time

Josh sings "New Fang" a few times and the short 7/8 
bar is thrown in again while repeating the main riff.


Outro:

  Repeated Rhythm Riff 
e|----------------------------|            
B|----------------------------|            
G|----------------------------|            
D|-9\----9\-------------------|            
A|-9\----9\-----------7p5-----|            
E|-7\----7\---7-5\3-------6---|            


   Outro Wah Solo -
e|-----------------------|------------------------| 
B|-10~------10----10-----|----10-----12-12b14-b14-| 
G|--------11----11----11-|------------------------|
D|------13----13----13---|-9----9~----------------|
A|-----------------------|------------------------|
E|-----------------------|------------------------|

e|----12b14-10~--12--12b14-12p10---|-10b11r10-------------|
B|-12---------------------------12-|---------10-12--------|
G|---------------------------------|----------------------|
D|---------------------------------|---------------12b13~-|
A|---------------------------------|----------------------|
E|---------------------------------|----------------------|



Key:
| /  slide up
| \  slide down
| h  hammer-on
| p  pull-off
| ~  vibrato
| x  Mute note
| b  bend note
| r  release bend
|

            
            
Suggest correction
Creating personal tab
Creating personal tab
You can edit any tab online and save it as your Personal.

You can edit, replace or remove any tab part or add personal notes – all changes will be seen only by you.

Personal tabs can be accessed anytime from any device, even offline.
Learn more »
comments
print report bad tab
guest
You may want to rate the tab now too:
select rating
Wanna post a correction for this tab? Suggest correction