Oops, an error
Loading. Please wait.

No One Loves Me And Neither Do I Tab

version 5
version 5

Interactive

6,946 views 1 this week
1 commentread comment
1 2 3 4 5
accurate
x 3
add to favorites
launch autoscroll
font size
0
reset
how to read this tab
guitar tuner
Tab Pro tools
  • play this tab
  • loop segment
  • change instrument
  • show fretboard
  • metronome
×
Best way to learn
"No One Loves Me And Neither Do I"
Autoscroll
slow
fast
+/-
esc
set tempo
stop
Contributor
-------------------------------------------------------------------------------
                   Nobody Loves Me and Neither Do I - Them Crooked Vultures
-------------------------------------------------------------------------------
Tabbed by:ben pattyson

Love this song! Pretty sure its right but im open to corrections. Cheers.

intro riff

e|-------------------------------|
B|-------------------------------|
G|----------5--------------------| repeat until...
D|-5-5-6-7--5---7-7-6h7p7-5--7---|
A|-5-5-6-7-------------------7---|
E|-3-3-4-5-------------------5---|

chorus

e|--------------------------------|
B|------5-------------------------|
G|-7777-7b9-7-5------7-5----------| x3
D|-7777---------7777-----7-5------|
A|-5555---------7777---------7-5--|
E|--------------5555--------------|

e|-1-1-1-1--7-7-7-7---|
B|-1-1-1-1--7-7-7-7---|
G|-2-2-2-2--8-8-8-8---|
D|-3-3-3-3--9-9-9-9---|
A|-3-3-3-3--9-9-9-9---|
E|-1-1-1-1--7-7-7-7---|

This is followed by a variation of the intro riff then repeats all above until...

e|-----------------------------------------------|
B|-----------------------------------------------|
G|-2-0-2-0-2-0-------------1-0-1-0-1-0-----------| repeat until...
D|-------------------------------------2-0-2-0-0-|
A|--------------3-0-3-0-0------------------------|
E|-----------------------------------------------|

e|--------------|
B|--------------|
G|--------------| repeat until...
D|-10-7-5h6-7---|
A|-10-7---------|
E|-8--5---------|

e|--------------------------------|
B|--------------------------------|
G|--------8-9-10--------10-11-12--|
D|--------------------------------|
A|-6-7-8---------8-9-10-----------|
E|--------------------------------|

e|------------------------------------|
B|------------------------------------|
G|------------------------------------| repeat until...
D|-10-7-5h6-7-(x3)-5h6-7-10-7--(x3)---|
A|-10-7------------------10-7---------|
E|-8--5------------------8--5---------|



e|--------------------------------|
B|--------------------------------|
G|--------8-9-10--------10-11-12--|
D|--------------------------------|
A|-6-7-8---------8-9-10-----------|
E|--------------------------------|

e|------------------------------------|
B|------------------------------------|
G|------7h8-5------7h8-5--------------| repeat until...
D|-10-7-------(x3)-------10-7--(x3)---|
A|-10-7------------------10-7---------|
E|-8--5------------------8--5---------|

e|-----------------------------------------------|
B|-----------------------------------------------|
G|-------5-6-7-----5-6-7-----5-6-7-------5-6-7-5-| x2
D|-----------------------------------------------|
A|-3-4-5------3-4-5-----3-4-5------3-4-5---------|
E|-----------------------------------------------|

ending

e|-------------------------------------------|
B|-------------------------------------------|
G|-------------------------------------------| x2
D|-10-7----------(x3)-----10-7---------------| 
A|-10-7-------------------10-7---------------|
E|-8--5-10h11-8-----------8--5-10h11-10h11---|

e|-----------------------------------------------------------------|
B|-----------------------------------------------------------------|
G|-2-0-2-0-2-0-2-0-----------------1-0-1-0-1-0-1-------------------|
D|-------------------------------------------------2-0-2-0-2-0-2-0-|
A|-----------------3-0-3-0-3-0-3-0---------------------------------|
E|-----------------------------------------------------------------|

e|--------------------------------------------------|
B|--------------------------------------------------|
G|-2-0-2-0-2-0-2-0-----------------1-0-1-0-1-0-1----|
D|--------------------------------------------------|
A|-----------------3-0-3-0-3-0-3-0------------------|
E|--------------------------------------------------|

| s  slide 
| h  hammer-on
| p  pull-off
| b  bend
| x  Mute note
===============================================================================
comments
We did not receive enough feedback on this tab! Please rate:
print report bad tab
1 2 3 4 5
1 comment total.
0 reply
Shark17 wrote on November 15 2009, 02:01 am

The second half of the song is a slide-to-open on the A string.

I want to post or [tab]
guest
You may want to rate the tab now too:
select rating
Please do not post tabs as comments. Select "correction" instead!