Oops, an error
Loading. Please wait.

No One Loves Me And Neither Do I Tab

version 6
version 6

Intro

Interactive

1,614 views 1 this week
1 commentread comment
1 2 3 4 5
poor
x 1
add to favorites
launch autoscroll
font size
0
reset
how to read this tab
guitar tuner
Tab Pro tools
  • play this tab
  • loop segment
  • change instrument
  • show fretboard
  • metronome
Autoscroll
slow
fast
+/-
esc
set tempo
stop
Contributor
Difficulty
intermediate
Song: No one Loves Me & Neither Do I
Artist: Them Crooked Vultures
Album: Them Crooked Vultures
Tabbed by: ChewItStef

You're gonna have to tune your 6th E to a low A, and your 5th A to an E.

Tuning: AEDGBe

Intro/Verse:

e|-------------------------------------|
B|----------5--------------------------|
G|----------5--------------------------|
D|-------------7-7-6h7h6-5-------------|
E|-3-3-4-5-----------------5-----------|
A|-------------------------0-----------|

e|-------------------------------------|
B|----------5--------------------------|
G|----------5--------------7b-7b-------|
D|-------------7-7-6h7h6-5-------------|
E|-3-3-4-5-----------------------------|
A|-------------------------------------|

e|------------------------------------------------------------|
B|------------------------------------------------------------|
G|---------7b-7h5h7-------------------------------------------|
D|-----------------7--7-7-6h7h6-5-----------------------------|
E|-3-3-4-5------------------------5---------------------------|
A|--------------------------------0---------------------------|

e|------------------------------------------------------------|
B|------------10----------------------------------------------|
G|---------7b----7/5------------------------------------------|
D|--------------------7-7-6h7h6-5-----------------------------|
E|-3-3-4-5------------------------5---------------------------|
A|--------------------------------0---------------------------|

e|-------------------------------------|
B|----------5--------------------------|
G|----------5--------------------------|
D|-------------7-7-6h7h6-5-------------|
E|-3-3-4-5-----------------5-----------|
A|-------------------------0-----------|

He does a few tweaks here and there in the middle of the riff. I'm too lazy to tab them all.

Chorus:

I'm not sure if this is 100% correct but it's the closest I got.

e|------------------------------------------------------------|
B|------------------------------------------------------------|
G|--------------7br-7-5-----------5p2-2p0---------------------|
D|-12-12-12-12-----------7-7-7-7----------2p0-----------------|
E|-10-10-10-10-----------5-5-5-5------------------------------|
A|------------------------------------------------------------|

e|------------------------------------------------------------|
B|-------------------------------------------/10--------------|
G|-------------7br-7-5-----------5p2p0-5p2p0------------------|
D|-12-12-12-12----------7-7-7-7-------------------------------|
E|-10-10-10-10----------5-5-5-5-------------------------------|
A|------------------------------------------------------------|

e|-------------------------|
B|-------------------------|
G|-2-2-2-2---1-1-1-1-------|
D|-3-3-3-3---2-2-2-2-------|
E|-3-3-3-3---0-0-0-0-------|
A|-------------------------|

(let ring)

Bridge:

e|------------------------------------------------------------|
B|------------------------------------------------------------|
G|------------------------------------------------------------|
D|------------------------------------------------------------|
E|-5h3h5h3h5h3-----------5h3h5h3h5h3--------------------------|
A|-------------0-3p0h3p0-------------5-7h5h7h5----------------|

I couldn't quite figure out the next section, so you'll have to excuse me. I'll post it 
another time.

This next part varies a bit, but the majority of it is played like this.

e|-------------------------------------------------------|
B|-------------------------------------------------------|
G|-------------------------------------------------------|
D|-------------------------------------------------------|
E|------3h4h5-----3h4h5------3h4h5------3h4h5------------|
A|-5/-0-------5/0-------5/-0-------5/-0------------------|

e|----------------------------------------|
B|----------------------------------------|
G|----------------------------------------|
D|----------------------------------------|
E|------3h4h5------3h4h5------3h4h5-3h4h5-|
A|-5/-0-------5/-0-------5/-0-------------|


e|-------------------------------------------|
B|-------------------------------------------|
G|-------------------------------------------|
D|-------------------------------------------|
E|------3h4h5------3h4h5-----------3h4h5-----|
A|-5/-0-------5/-0-------5/-0-5/-0-----------|


I couldn't quite figure out the outro either, apologies.
comments
We did not receive enough feedback on this tab! Please rate:
print report bad tab
1 2 3 4 5
1 comment total.
0 reply
Shark17 wrote on November 12 2009, 01:54 pm

The slide is:

|------------------------------------------|
|------------------------------------------|
|------------------------------------------|
|------------------------------------------|
|---10-11-12--12\\--0----------------------|
|------------------------------------------|

I want to post or [tab]
guest
You may want to rate the tab now too:
select rating
Please do not post tabs as comments. Select "correction" instead!