Oops, an error
Loading. Please wait.

Reptiles Bass Tab

version 1
version 1

Whole song

Interactive

5,813 views 1 this week
no commentswrite comment
1 2 3 4 5
x 3
add to favorites
launch autoscroll
font size
0
reset
guitar tuner
Autoscroll
slow
fast
+/-
esc
set tempo
stop
Help us to improve Ultimate-Guitar.com Take our survey!
×
Author
Difficulty
intermediate
-------------------------------------------------------------------------------
	       REPTILES- Them Crooked Vultures
-------------------------------------------------------------------------------

This song has got loads of small variations. See this tab as a handhold, don't 
take it as fact, play around.
Check out what notes he's playing and try variations with them.


Starts of with semi-weirdish timing.
G|----------------|
D|----------------|
A|-5555-5555-5555-|
E|----------------|

and so forth with little variations like
G|----------------|
D|----------------|
A|-5435-5435-5435-|
E|----------------|

Then gets out of weirdish rhytm.
G|-----------------------------------------------|
D|-----------------------------------------------|
A|-------------------999---------9-------9-9-99--|
E|-7777-7777-7777-777----7777-777-7-7777--7-7----|

back to
G|----------------|
D|----------------|
A|-5555-5555-5555-|
E|----------------|

with the variations
G|------|
D|------|
A|-5435-|
E|------|

'But the reptiles, they won't let me go'
G|--------------------------------|
D|--------------------------------|
A|----999---------9-------9-9-99--|
E|-777----7777-777-7-7777--7-7----|

'Questions are a fire that needs feeding to survive'
G|---------------------------------------|
D|-333-33-33-333-33-5757-----------------|   x2
A|----5--5------5--5------5555-5435-5555-|
E|---------------------------------------|

'Trained by consequence and the lash'
G|--------------------------------------------------------------------|
D|--------------------------------------------------------------------|
A|--------------11111111-9111111-91111-13131313-11131313----8----8888-|
E|-9999-7999-797----------------------------------------6666--666-----|

The rest is all based round these :)
Suggest correction
Give kudos to tab author, rate the tab!
1 2 3 4 5
comments
print report bad tab
guest
You may want to rate the tab now too:
select rating
Wanna post a correction for this tab? Suggest correction