Oops, an error
Loading. Please wait.

Reptiles Tab

version 1
version 1

Whole song

Interactive

13,318 views 3 this week
no commentswrite comment
1 2 3 4 5
accurate
x 8
add to favorites
launch autoscroll
font size
0
reset
how to read this tab
guitar tuner
Tab Pro tools
  • play this tab
  • loop segment
  • change instrument
  • show fretboard
  • metronome
×
Best way to learn
"Reptiles"
Autoscroll
slow
fast
+/-
esc
set tempo
stop
Contributor
Difficulty
novice
Them Crooked Vultures - Reptiles

Tabbed By: Mark DiFranco


Tuning - E A D G B e


Main Riff: (alter between the two strumming patterns through the song)
e|--------------------------------------------------------------------| 
B|--------------------------------------------------------------------| 
G|--------------------------------------------------------------------| 
D|---12121212--12121212--12121212--12121212--12121212--12121212-------|
A|---12121212--12121212--12121212--12121212--12121212--12121212-------| 
E|---10101010--10101010--10101010--10101010--10101010--10101010-------| 

e|--------------------------------------------------------------------| 
B|--------------------------------------------------------------------| 
G|--------------------------------------------------------------------| 
D|---121212x-9-9-9-9-x-x-x-x-x-9-9-9-9-x-x-9-9-9-9-x-x-x-x-x-9-9-9-9--|
A|---121212x-9-9-9-9-x-x-x-x-x-9-9-9-9-x-x-9-9-9-9-x-x-x-x-x-9-9-9-9--| 
E|---101010x-7-7-7-7-x-x-x-x-x-7-7-7-7-x-x-7-7-7-7-x-x-x-x-x-7-7-7-7--|


Main Slide Riff (w/ slide):
e|--------------------------------------------------------------------| 
B|--------------------------------------------------------------------| 
G|---//10\9---//13\\--7\5/7--etc---//10\9\--8/slow/16-----------------| 
D|--------------------------------------------------------------------|
A|--------------------------------------------------------------------| 
E|--------------------------------------------------------------------|

e|--------------------------------------------------------------------| 
B|--------------------------------------------------------------------| 
G|---14/15/16/17\16\15\14-etc-----------------------------------------| 
D|--------------------------------------------------------------------|
A|--------------------------------------------------------------------| 
E|--------------------------------------------------------------------|


Secondary Riff:
e|--------------------------------------------------------------------| 
B|--------------------------------------------------------------------| 
G|---10--12-14-10-10--12-14-10--12-14-17-17---------------------------| 
D|--------------------------------------------------------------------|
A|---8---10-12-8--8---10-12-8---10-12-15-15---------------------------| 
E|--------------------------------------------------------------------|

e|--------------------------------------------------------------------| 
B|--------------------------------------------------------------------| 
G|--------------------------------------------------------------------| 
D|--------------------------------------------------------------------|
A|-12p10------------------------------12p10---------------------------| 
E|------12p10-10-10-10h12/13\12-10-10------12p10-10-10h12/13\12-10-10-|

[second time]
e|--------------------------------------------------------------------| 
B|--------------------------------------------------------------------| 
G|--------------------------------------------------------------------| 
D|--------------------------------------------------------------------|
A|-12p10------9--9--9--11-12-11-9--9--9---9--9--9--11-12-11-9--9--9---| 
E|------12p10-10-10-10/12/13\12-10-10-10--10-10-10/12/13\12-10-10-10--|


Verse Riff:
e|--------------------------------------------------------------------| 
B|--------------------------------------------------------------------| 
G|--10101010x-x-x-x-x-10101010x-x-9-9-9-9-x-x-x-x-x-9-9-9-9-9-x-x-7-7-| 
D|--10101010x-x-x-x-x-10101010x-x-9-9-9-9-x-x-x-x-x-9-9-9-9-9-x-x-7-7-|
A|--8-8-8-8-x-x-x-x-x-8-8-8-8-x-x-7-7-7-7-x-x-x-x-x-7-7-7-7-7-x-x-5-5-| 
E|--------------------------------------------------------------------|

e|--------------------------------------------------------------------| 
B|--------------------------------------------------------------------| 
G|-7-7-x-x-x-x-x-7-7-7-7-x-x-7-7-7-7-x-x-x-x-x-7-7-7-7----------------| 
D|-7-7-x-x-x-x-x-7-7-7-7-x-x-7-7-7-7-x-x-x-x-x-7-7-7-7----------------|
A|-5-5-x-x-x-x-x-5-5-5-5-x-x-5-5-5-5-x-x-x-x-x-5-5-5-5----------------| 
E|--------------------------------------------------------------------| 
 

Verse Slide (w/ slide):
e|--------------------------------------------------------------------| 
B|--------------------------------------------------------------------| 
G|--7/10--10/17-17/18\15--15/17\15/17\15--15\slow\7-------------------| 
D|--------------------------------------------------------------------|
A|--------------------------------------------------------------------| 
E|--------------------------------------------------------------------| 
comments
print report bad tab
I want to post or [tab]
guest
You may want to rate the tab now too:
select rating
Please do not post tabs as comments. Select "correction" instead!