Oops, an error
Loading. Please wait.

Scumbag Blues Bass Tab

version 1
version 1

Whole song

Interactive

18,173 views 7 this week
4 commentsread comments
1 2 3 4 5
excellent!
x 6
add to favorites
launch autoscroll
font size
0
reset
guitar tuner
Tab Pro tools
  • play this tab
  • loop segment
  • change instrument
  • show fretboard
  • metronome
×
Best way to learn
"Scumbag Blues"
Autoscroll
slow
fast
+/-
esc
set tempo
stop
Contributor
Difficulty
intermediate
This is good enough! Any corrections then tell me :)

G|-------------------------------------------------------------------|
D|---------10-------------------------------10-----------------------|
A|12-12-12---12p10------------------0-12-12---12p10------------------|X2
E|----------------12-10-10----12-8-----------------12-10-10----12-8--|

====

G|----------------------------------|
D|---------10-----------------------|
A|-0-12-12---12p10------------------|x2
E|----------------12-10-10-10-12-8--|

G|------------------------------------|
D|---------10-------------------------|
A|12-12-12---12p10--------------------|x2
E|----------------12-10-10-10-12-9-8--|

G|----------------------------------|
D|---------10-----------------------|
A|-0-12-12---12p10------------------|x2
E|----------------12-10-10-10-12-8--|

G|---------------------------------------------------|
D|---------------------------------------------------|
A|0-0-x-0-2-3-5-5--x-------0-0-x-0-2-3-5-5--x--------|
E|-------------------3-4-5--------------------3-4-5--|

====

G|------------------------------------------------------|
D|------------------------------------------------------|
A|0-0-x-0-2-3-5-5--x-------0-0-x-0-2-3-5-3-5-x-55-------|
E|-------------------x-4-5-----------------------3-4-5--|

G|---------------------------------------------------7--|
D|------------------------------------------------5h7---|
A|0-0-x-0-2-3-5-5--x-------0-0-x-0-2-3-5--5-x-5-5-------|
E|-------------------3-4-5------------------------------|

G|---------------------------------------------------5--|
D|----------------------5------(2)---------------5-7----|
A|0-0-x-0-2-3-5-5-x-5/7---7-5--0-0-x-0-2-3-5-5x5--------|
E|------------------------------------------------------|

G|2---------------------------------------------------|
D|--2-------------------------------------------------|
A|----0-x-0-2-3-5-5-(3)5-3-2-0-0-x-0-2-3-5-5-555-555--|
E|----------------------------------------------------|

====

G|-------------------------------------|
D|---------10--------------------------|
A|12-12-12---12p10---------------------|x2
E|----------------12-10-10-10-12-8-10--|

G|---------------------------------------------------------------------------|
D|---------10----------------------------------------------------------------|
A|12-12-12----12-10-------------------12-12-14-12-14-12-10-------------------|
E|------------------10-10-10-12-10-8-----------------------10-10-10-12-10-8--|

====

G|-------------------------------------------------|
D|-------------------------------------------------|
A|12-12-12-12-12-12-12-12-11-11-11-11-11-11-11-11--|
E|-------------------------------------------------|

G|-------------------------------------------------|
D|-------------------------------------------------|
A|10-10-10-10-10-10-10-10-10-10-10-10-10-10-10-10--|
E|-------------------------------------------------|

====x3

G|-------------------------------------------------|
D|-------------------------------------------------|
A|12-12-12-12-12-12-12-12-11-11-11-11-11-11-11-11--|
E|-------------------------------------------------|

G|----------------------------------|
D|---------10-----------------------|
A|12-12-12---12p10------------------|x2
E|----------------12-10-10-10-12-8--|
====

G|-------------------------------------------------------------------------------------|
D|---------10----------------------------------10--------------------------------------|
A|-0-12-12----12-10--------------------0-12-12---12p10---------------------------------|
E|------------------10-10-10-1012p109------------------12-10-10-10-12-10-8--12-10-8----|

====

G|-------5---------------------2-2---------------5-5-----|
D|--------7p5---------------------------------5/7-7-75---|
A|0-0-0------7-5-5-x0-5-4-3-0---2-0-2-3-5--5-5--------7--|
E|-------------------------------------------------------|

G|--------5-------------------------------------------|
D|---------7p5-------3--------------------------------|
A|0-0-0--0----7-5-5-5-53-5-3-0-0-x-0-0-2-3-5-------2--|
E|------------------------------------------3--4-5----|

====

G|--------------------------------------------------------------|
D|-------------------5----5------------------------7p5--7p5-----|
A|0---0--0-0-3-5-5-x--7p5--7p5--0--0-0-0-0-2-3-5-5x---5----7p5--|
E|--3-----------------------------------------------------------|

G|-----------------------------------------------------------------|
D|-----------------------------------------------------------------|
A|-------------3-5-5-5-7p5-3-7p5-3-0--0---0---0-3-5---5---5---5----|
E|5--5-4-5-4-5--------------------------3---3-------5---5---5---5--|

====x2

G|------2---2p0----------------------2---2-------------------|
D|------------2p0-------2p0--2p0-----------3-2-0-----2p0-----|
A|0-0--0--0-------5-5-3----3----3-0----0---------5-3----5~-3-|
E|-----------------------------------------------------------|

G|----------------------------------|
D|---------10-----------------------|
A|-0-12-12---12p10------------------|x2
E|----------------12-10-10-10-12-8--|

G|------------------------------------|
D|---------10-------------------------|
A|12-12-12---12p10--------------------|x2
E|----------------12-10-10-10-12-9-8--|

====

G|-------------------------------------------------|
D|-------------------------------------------------|
A|12-12-12-12-12-12-12-12-11-11-11-11-11-11-11-11--|
E|-------------------------------------------------|

G|-------------------------------------------------|
D|-------------------------------------------------|
A|10-10-10-10-10-10-10-10-10-10-10-10-10-10-10-10--|
E|-------------------------------------------------|

====x3

G|-------------------------------------------------|
D|-------------------------------------------------|
A|12-12-12-12-12-12-12-12-11-11-11-11-11-11-11-11--|
E|-------------------------------------------------|

G|----------------------------------|
D|---------10-----------------------|
A|12-12-12---12p10------------------|
E|----------------12-10-10-10-12-8--|

G|----------------------------------------------|
D|---------10--------10-------------------------|
A|12-12-12---12p10-----12p10---10------10--10---|
E|----------------12--------12---12p10---8---8--|
comments
print report bad tab
4 comments total. Showing first comments.
0 reply
Grohlism wrote on December 25 2009, 10:34 am

You clearly spent a lot of time on this, lol. Mostly right I'd say.

0 reply
Hungry_Hameds wrote on August 25 2010, 08:11 am

great tab, only thing is that I pretty sure the first note of the main riff each time is the open A and then move to the 12th...

0 reply
Hungry_Hameds wrote on August 25 2010, 08:13 am

apart from when it comes back in just bass and drums, it alternates there...

I want to post or [tab]
guest
You may want to rate the tab now too:
select rating
Please do not post tabs as comments. Select "correction" instead!